Underoath - Cries Of The Past Chords & Tabs

 

Cries Of The Past Chords & Tabs

Underoath Chords & Tabs

Version: 1 Type: Tab 0 ratings
1 star 2 stars 3 stars 4 stars 5 stars
comments

Cries Of The Past Tab

   
Title: Cries Of The Past
Artist: Underoath
Album: Cries Of The Past

Tabbed By: Edward Pangestu (DarkStar11589@msn.com)

Tuning: Dropped D (D A D G B E)

Clean Intro
E|-------------------------------------------------------------------||
B|-------------------------------------------------------------------||
G|-------------------------------------------------------------------||
D|----9-9----9-9----9-9----9-9-----5-5----5-5----5-5----5-5----------||
A|-----7------7------7------7-------3------3------3------3-----------||
D|-777----777----777----777-----333----333----333----333-------------|| x4

(Distortion) (Twice with slide, Once without, Last time with)
E|--------------------------------------------------------------------||
B|--------------------------------------------------------------------||
G|--------------------------------------------------------------------||
D|-77---1010---33---/\\/----------------------------------------------||
A|-77---1010---33---/\\/----------------------------------------------||
D|-77---1010---33---/\\/----------------------------------------------|| x4



E|-------------------------------------------------------------------||
B|-------------------------------------------------------------------||
G|--------------------------*FILL PART*----779910109977--------------||
D|-777777---333333---777777------------7799--------------------------||
A|-777777---333333---777777------------------------------------------||
D|-777777---333333---777777------------------------------------------|| x4


E|-------------------------------||
B|-------------------------------||
G|-------------------------------||
D|-------------------------------||
A|-----------8h10-6--------------||
D|-000-000---8h10-6--------------|| x8
   ... ...

E|--------------------------------------------------------------------||
B|--------------------------------------------------------------------||
G|--------------------------------------------------------------------||
D|--------------------------------------------------------101010888777||
A|-333-333-333-333-333-333-333-333-777-777-777-777-777-777------------||
D|--------------------------------------------------------------------||x2


E|-------------------------------------------------------------------||
B|-------------------------------------------------------------------||
G|-------------------------------------------------------------------||
D|----------4444555577775555-----------------------------------------||
A|-3333(x8)------------------77777777--------77777777----------------||
D|-----------------------------------55555555--------55555555--------|| x2

E|--------------------------------------------------------------------||
B|--------------------------------------------------------------------||
G|--------------------------------------------------------------------||
D|--------------------------------------------------------101010888777||
A|-333-333-333-333-333-333-333-333-777-777-777-777-777-777------------||
D|--------------------------------------------------------------------||x2

E|-------------------------------------------------------------------||
B|-------------------------------------------------------------------||
G|-------------------------------------------------------------------||
D|-------------------------------------------------------------------||
A|-0-0-0-0-8h0-0-0-0-0-7h0--0-0-0-0-5h0--0-0-0-0-0-0-8h10h8h0--------||
D|-0-0-0-0-----0-0-0-0------0-0-0-0------0-0-0-0-0-0-----------------|| x2
   . . . .     . . . .      . . . .      . . . . . .
E|-------------------------------------------------------------------||
B|-------------------------------------------------------------------||
G|-------------------------------------------------------------------||
D|-------------------------------------------------------------------||
A|00000000-8h0-0000000-7h0--0000000-5h0--00000000000-8h10h8h0--------||
D|00000000-----0000000------0000000------00000000000-----------------|| x2
  ........     .......      .......      ...........
[ Tab from: http://www.guitartabs.cc/tabs/u/underoath/cries_of_the_past_tab.html ]
E|-------------------------------------------------------------------||
B|-------------------------------------------------------------------||
G|-------------------------------------------------------------------||
D|-8-8-8-8-8-8-7-7-7-7-7-7-8-8-8-8-8-8-0-0-0-7--0-0-0-7-/8-----------||
A|-8-8-8-8-8-8-7-7-7-7-7-7-8-8-8-8-8-8-0-0-0-7--0-0-0-7-/8-----------||
D|-8-8-8-8-8-8-7-7-7-7-7-7-8-8-8-8-8-8-0-0-0-7--0-0-0-7-/8-----------|| x2


E|-------------------------------------------------------------------||
B|-------------------------------------------------------------------||
G|-------------------------------------------------------------------||
D|-444555777555-444555777555-00022244422244422244400-----------------||
A|-------------------------------------------------------------------||
D|-------------------------------------------------------------------|| x4


E|-------------------------------------------------------------------||
B|-------------------------------------------------------------------||
G|-------------------------------------------------------------------||
D|00000000777777770000000088888888-////------------------------------||
A|-------------------------------------------------------------------||
D|-------------------------------------------------------------------||


(On 4th time dont play tremelo part)
E|-------------------------------------------------------------------||
B|-------------------------------------------------------------------||
G|-------------------------------------------------------------------||
D|-8-8-8~-7-8-7--5-5-5~-3-5-3-0--000000007777777788887777777700000000||
A|-8-8-8~-7-8-7--5-5-5~-3-5-3-0--------------------------------------||
D|-8-8-8~-7-8-7--5-5-5~-3-5-3-0--------------------------------------|| x4


E|-------------------------------------------------------------------||
B|-------------------------------------------------------------------||
G|-------------------------------------------------------------------||
D|-0-0--0-0-0-0--0-0-7h8h7-5----0-0--0-0-0-0--0-0-7h8h7-4------------||
A|-0-0--0-0-0-0--0-0-7h8h7-5----0-0--0-0-0-0--0-0-7h8h7-4------------||
D|-0-0--0-0-0-0--0-0-7h8h7-5----0-0--0-0-0-0--0-0-7h8h7-4------------|| x4


E|-------------------------------------------------------------------||
B|-------------------------------------------------------------------||
G|-------------------------------------------------------------------||
D|-------------------------------------------------------------------||
A|-------------------------------------------------------------------||
D|888877778888555500000000-------------------------------------------||

(CLEAN)
E|----------------------||
B|----------------------||
G|----------------------||
D|----------5h0-2h0-3h0-||
A|----------------------||
D|0-0-0-0000------------||x4

(Distortion)
E|-------------------------------------------------------------------||
B|-------------------------------------------------------------------||
G|-------------------------------------------------------------------||
D|----------5h0-2h0-3h0------------8h0-5h0-6h0-----------------------||
A|0-0-0-0000------------0-0-0-0000-----------------------------------||
D|0-0-0-0000------------0-0-0-0000-----------------------------------||
  . . . ....            . . . ....

E|-------------------------------------------------------------------||
B|-------------------------------------------------------------------||
G|-------------------------------------------------------------------||
D|777777775555555533333333000000000000-------------------------------||
A|-------------------------------------------------------------------||
D|-------------------------------------------------------------------|| x2


E|-------------------------------------------------------------------||
B|-------------------------------------------------------------------||
G|-------------------------------------------------------------------||
D|55555555333333332222222200000000222222227555555--------------------||
A|-------------------------------------------------------------------||
D|-------------------------------------------------------------------||

UNTIL END
E|-------------------------------------------------------------------||
B|-------------------------------------------------------------------||
G|-------------------------------------------------------------------||
D|777777775555555533333333000000000000-------------------------------||
A|-------------------------------------------------------------------||
D|-------------------------------------------------------------------||
Comments