Underoath - Casting Such A Thin Shadow Chords & Tabs

 

Casting Such A Thin Shadow Chords & Tabs

Underoath Chords & Tabs

Version: 1 Type: Tab 0 ratings
1 star 2 stars 3 stars 4 stars 5 stars
comments

Casting Such A Thin Shadow Tab

e|--------------------------------------------------------------------------|
B|--5h6-5h6-5~-5h6-5h6-5~---------------------------------------------------|
G|--------------------------------------------------------------------------|
D|----------------------------------0-0-(0)-(3)-(2)-------------------------|
A|-------------------------3-3/10-------------------------------------------|
D|--------------------------------------------------------------------------|

Guitar 2: Part One, I don't know how many times they play it... but its a lot

e|--------------------------------------------------------------------------|
B|--------------------------------------------------------------------------|
G|--------------------------------------------------------------------------|
D|----------0-0-(0)-(3)-(2)-------------------------------------------------|
A|---3-3/10-----------------------------------------------------------------|
D|--------------------------------------------------------------------------|

Guitars 1 and 2: Now, the other guitar is doing something in the background... I dont
to figure it out. I also dont want to put how many times they strum it on this part
it's a pain in the ass... you guys can figure it out :)

e|--------------------------------------------------------------------------|
B|--------------------------------------------------------------------------|
G|--------------------------------------------------------------------------|
D|---0---0---0---0---0---12---12---10---10----3---3-----0----0---0----------|
A|-0---0---0---0---0---0----0----0----0-----0---0-----0----0---0------------|
D|---------------------------------------------------0-0--0-0-0-0-----------|
[ Tab from: http://www.guitartabs.cc/tabs/u/underoath/casting_such_a_thin_shadow_tab.html ]
                           (Don't know if this part ^ is right, I don't
                            the rest of this part...)

Next Part: Palm Mute this, play it a couple times... you guys can figure out what the
guitar is doing


e|--------------------------------------------------------------------------|
B|--------------------------------------------------------------------------|
G|--------------------------------------------------------------------------|
D|--0-3-7-5-3-7----5-7-5-------------3-------0------------------------------|
A|--0-3-7-5-3-7----5-7-5---7-3---3h5----------0-----------------------------|
D|--0-3-7-5-3-7----5-7-5-3-----0---------3/7----3-3-3-3---------------------|

(Start playing open^) Repeat as necessary

Here's the part where they start singing/screaming...

e|--------------------------------------------------------------------------|
B|--------------------------------------------------------------------------|
G|--------------------------------------------------------------------------|
D|-3/7-3-3--x-x-x-x--7-5-------------3--------------------------------------|
A|-3/7-3-3--x-x-x-x--7-5---7-3---3h5----------------------------------------|
D|-3/7-3-3--x-x-x-x--7-5-3-----0--------------------------------------------|

   ^^^^^^^
(Repeat as necessary... I dont wanna do the strumming)

Then back to this... it kinda goes back and forth

e|--------------------------------------------------------------------------|
B|--------------------------------------------------------------------------|
G|--------------------------------------------------------------------------|
D|-3/7-3-3----------------------0~------------------------------------------|
A|-3/7-3-3----------------------0~------------------------------------------|
D|-3/7-3-3----------------------0~------------------------------------------|

Then end the song with this.... ^

Comments