Underoath - A Moment Suspended In Time Chords & Tabs

 

A Moment Suspended In Time Chords & Tabs

Underoath Chords & Tabs

Version: 2 Type: Tab

A Moment Suspended In Time Tab

   
-------------------------------------------------------------------------------
			     Writing on the Walls - Underoath
-------------------------------------------------------------------------------
Tabbed by: Vijay Patel
Email:

Tuning: Drop-D down half a step


This tab is about 99% correct, this song has alot of background guitar that is hard to hear,
listen to the song to figure out when to play the parts. Have Fun!

Intro- 00:04- 00:24
Guitar 1  (x2)- listen to the song for the correct amount of times to play the chords

e|--8--3---------------------------------------------------------------------|
B|--6--3--6--6---------------------------------------------------------------|
G|--7--0--5--5---------------------------------------------------------------|
D|--------3--5---------------------------------------------------------------|
A|---------------------------------------------------------------------------|
D|---------------------------------------------------------------------------|

Verse- 00:24- 00:45
Guitar 1 (x2)

e|------------------------------------------------------------------------------|
B|------------------------------------------------------------------------------|
G|-------------------------------------------15h17p15-19--15h17p15-19--15h17-19-|
D|-17p15-17p15-17p15-15p13-15p13-15p13-15p13------------------------------------|
A|------------------------------------------------------------------------------|
D|------------------------------------------------------------------------------|\
                                                                                  |
e|-----20-------17-------------15------15---------------------------------------| |
B|--18----18-18----18-18-18-18---18-18----18\15---------------------------------| |
G|------------------------------------------------------------------------------| |PLAY TOGETHER
D|------------------------------------------------------------------------------| |
A|------------------------------------------------------------------------------| |
D|------------------------------------------------------------------------------| |
                                                                                  |
Guitar 2  (2)- this part is played on bass but can also be played on guitar,      |
listen to the song for the correct amount of times to play the chords             |
                                                                                  |
e|------------------------------------------------------------------------------|/
B|------------------------------------------------------------------------------|
G|------------------------------------------------------------------------------|
D|-7--5--7--8--10---------------------------------------------------------------|
A|-5--5--7--8--10---------------------------------------------------------------|
D|-0--5--7--8--10---------------------------------------------------------------|

00:45- 01:05
Guitar 2  (x2)

e|------------------------------------------------|
B|------------------------------------------------|
G|--7--10-9-------------7-2-5----------12---------|
D|--x--x--x-------------x-x-x----------x----------|
A|--5--8--7-------------5-0-3----------10---------|
D|------------------------------------------------|\
                                                    |Spacing Reps.
Guitar 1 (x2)                                       |when to play
                                                    |
e|-----------0-0-0--0-0-------0-0-0-15------------|/
B|-----------6-5h6-10-8-------6-5h6-13------------|
G|------------------------------------------------|
D|------------------------------------------------|
A|------------------------------------------------|
D|------------------------------------------------|

Pre Chorus- 01:06- 1:26
Guitar 1 (x2) - listen to the song for the correct amount of times to play the chords

e|-------------------0-----------------------------------------|
B|-------------------6-----------------------------------------|
G|--7--9--10--12--9--------------------------------------------|
D|--x--x--x---x---x--------------------------------------------|
A|--5--7--8---10--7--------------------------------------------|
D|-------------------------------------------------------------|\
                                                                 \
Guitar 2 (x2)                                                     |Play Together
                                                                 /
e|-------------------0-----------------------------------------|/
B|-------------------6-----------------------------------------|
G|--7--9--10--12--14-------------------------------------------|
D|--x--x--x---x---x--------------------------------------------|
A|--5--7--8---10--12-------------------------------------------|
D|-------------------------------------------------------------|
[ Tab from: http://www.guitartabs.cc/tabs/u/underoath/a_moment_suspended_in_time_tab_ver_2.html ]
Chorus- 01:26- 01:59
Both Guitars- listen to the song for the correct amount of times to play the weird chords

e|----------------------------------------------------------------------------------------|
B|----------------------------------------------------------------------------------------|
G|----------------------------------------------------------------------------------------|
D|-0-0-0--3-3--0-0-0------------------------------3-3-------3-3-------3-3-------3-3-0-0-0-|
A|-0-0-0--7-5--0-0-0------------------------0-0-0-7-5-0-0-0-7-5-0-0-0-7-5-0-0-0-7-5-0-0-0-|
D|-0-0-0-------0-0-0----------(feedback)----0-0-0-----0-0-0-----0-0-0-----0-0-0-----0-0-0-|\
                                                                                         
  |Spacing reps.
Guitar 1                                                                                 
  |when to play
                                                                                         
  |
e|------------------17--------------------------------------------------------------------|/
B|-------------------18-18-18-18-18-18-18-18----------------------------------------------|
G|--------------------17-17-17-17-17-17-17------------------------------------------------|
D|----------------------------------------------------------------------------------------|
A|----------------------------------------------------------------------------------------|
D|----------------------------------------------------------------------------------------|

Verse- 02:01- 03:05
Guitar 2- Repeat as many times as necessary, this part is played on bass but can also
          be played on guitar
e|---------------------------------------------------------------------------|
B|---------------------------------------------------------------------------|
G|---------------------------------------------------------------------------|
D|--8-8-8--5-5-5--0-0--0-----------------------------------------------------|
A|--8-8-8--5-5-5--0-0--0-----------------------------------------------------|
D|--8-8-8--5-5-5--0-0--0-----------------------------------------------------|\
                                                                               |
02:07- 03:05                                                                   |Play
Guitar 1                                                                       |Together
                                    |_______________( x4 )___________|         |
e|--------------------------------------------------17-------------17--------|/
B|---10-8-6/8-5/6-3/5/6-8b---------------13------15----15-13-13-15-----------|
G|---------------------------7/9/10--7/9---10-12-----------------------------|
D|---------------------------x-x-x-------------------------------------------|
A|---------------------------5/7/8-------------------------------------------|
D|---------------------------------------------------------------------------|\
                                                                               |
02:42- 03:05                                                                   |Spacing reps.
Guitar 2 (x8)                                                                  |when to play
                                                                               |
e|---------------------------------------------------------------------------|/
B|----------------------------------------13-10------------------------------|
G|-----------------------------------10-12-----10----------------------------|
D|---------------------------------------------------------------------------|
A|---------------------------------------------------------------------------|
D|---------------------------------------------------------------------------|

Bridge- 03:05- 03:38
This is the really soft part arranged for guitar

e|---------------------------------------------------------------------------|
B|---------------------------------------------------------------------------|
G|--------7-9-5--------7-9-5--------7-9-5------------------------------------|
D|--8--5--x-x-x--8--5--x-x-x--8--5--x-x-x--8--5------------------------------|
A|--8--5--5-7-3--8--5--5-7-3--8--5--5-7-3--8--5------------------------------|
D|--8--5--0-0-0--8--5--0-0-0--8--5--0-0-0--8--5------------------------------|


Outro- 03:39- 04:00
Both Guitars- let the last note ring out

e|-------0--------------------------------------------------------------------|
B|-------6--------------------------------------------------------------------|
G|------------------------------------------10--------------------------------|
D|------------------0-0-0--0-0-0-0----------x----0-0-0--0-0-0--0-0-0-0--------|
A|-0-0-0---0-0-0-0--0-0-0--0-0-0-0----0-0-0-8--0-0-0-0--0-0-0--0-0-0-0--------|
D|-0-0-0---0-0-0-0--0-0-0--0-0-0-0----0-0-0----0-0-0-0--0-0-0--0-0-0-0*-------|

| /  slide up
| \  slide down
| h  hammer-on
| p  pull-off
| ~  vibrato
| +  harmonic
| x  Mute note
| * Palm-mute
===============================================================================