Underminded - Its Kinda Like A Bodybag Chords & Tabs

 

Its Kinda Like A Bodybag Chords & Tabs

Underminded Chords & Tabs

Version: 1 Type: Tab

Its Kinda Like A Bodybag Tab

   
----------------------------------------------------------------------------
IT'S KINDA LIKE A BODYBAG - Underminded
----------------------------------------------------------------------------
Tabbed by: Tyler Savage
Email: Tyler_Savage7@hotmail.com

Tuning: (Low - High) C-G-C-F-A-D


14.5 second sampling
D|----------------------------------------------|
A|----------------------------------------------|
F|----------------------------------------------|
C|----------------------------------------------|
G|----------------------------------------------|
C|----------------------------------------------|

D|--------------------------------------------------|
A|--------------------------------------------------|
F|-10-10-10-10----------------10--------------------|
C|--x--x--x--x--0--------------x-0------------------|
G|--8--8--8--8--0--------------8-0------------------|
C|--------------0---0-0-0-0-0----0---0-0-0----00000-|
                    x x x x x        x x x    xxxxx

D|-----------------------------------------------------------------|
A|-----------------------------------------------------------------|
F|----------------------------10-----------------------------------|
C|-0-0-0--0-0-0--0-0-0--00000--x--0-0-0--0-0-0--0-0-0--------------|
G|-0-0-0--0-0-0--0-0-0--00000--8--0-0-0--0-0-0--0-0-0-8-7--12-10-8-|
C|-0-0-0--0-0-0--0-0-0--00000-----0-0-0--0-0-0--0-0-0----10--------|
                        xxxxx

Guitar 1
D|---------------------------|
A|---------------------------|
F|---------------------------|
C|--------0-0-0--------------|
G|--------0-0-0-8-7--12-10-8-|
C|-000000-0-0-0----10--------| x3
   xxxxxx x x x

Guitar 2
D|-----------------------------------|
A|-----------------------------------|
F|-----------------------------------|
C|--------0-0-0----------------------|
G|--------0-0-0----------------------|
C|-000000-0-0-0-15/17-15-13-15-13-12-| x3
   xxxxxx x x x

Guitars 1&2
D|-----------------------------------|
A|-----------------------------------|
F|-----------------------------------|
C|--------0-0-0----------------------|
G|--------0-0-0----------------------|
C|-000000-0-0-0-15/17-15-13-15-13-12-|
   xxxxxx x x x

Guitar 1
D|-------------------------------/-----------------------\--|
A|------------------------------|-------------------------|-|
F|------------------------------|--------------19--19-----|-|
C|-0--0-0-0-0---0--0-0-0-0--+5+-|--0--0-0-0-0---x---x-----|-|
G|-0--0-0-0-0---0--0-0-0-0------|--0--0-0-0-0--17--17--x2-|-|
C|-0--0-0-0-0---0--0-0-0-0-------\-0--0-0-0-0------------/--|

Guitar 2
D|-------------------------------/-----------------------\--|
A|------------------------------|-------------------------|-|
F|------------------------------|--------------15--15-----|-|
C|-0--0-0-0-0---0--0-0-0-0--+5+-|--0--0-0-0-0---x---x-----|-|
G|-0--0-0-0-0---0--0-0-0-0------|--0--0-0-0-0--13--13--x2-|-|
C|-0--0-0-0-0---0--0-0-0-0-------\-0--0-0-0-0------------/--|


D|-------------------------------------------|
A|---------------------------0-3-1-----------|
F|---------------------------------3-2-------|
C|-0--0-0--------0--0-0-0-0------------5-3-2-|
G|-0--0-0--------0--0-0-0-0------------------|
C|-0--0-0--12\0--0--0-0-0-0------------------|
                             x x x x x x x x


D|----------------------------|
A|------------0-3-1-----------|
F|------------------3-2-------|
C|0--0-0-0-0------------5-3-2-|
G|0--0-0-0-0------------------|
C|0--0-0-0-0------------------|
              x x x x x x x x


D|--------/-10----10/17----\-----|
A|-------|----11-------18---|----|
F|-------|------12-------19-|----|
C|-0~----|------------------|-x8-|
G|-0~----|------------------|----|
C|-0~-----\----------------/-----|

D|----------------10----10/17-----|
A|------------------11-------18---|
F|--------------------12-------19-|
C|-0-0--0-0-0-0-0-----------------|
G|-0-0--0-0-0-0-0-----------------|
C|-0-0--0-0-0-0-0-----------------|
   x x  x x x x x
[ Tab from: http://www.guitartabs.cc/tabs/u/underminded/its_kinda_like_a_bodybag_tab.html ]
Guitar 1
D|-------------------------------------|
A|-------------------------------------|
F|-------------------10----------19-19-|
C|-0-0--0-0-0--0-0-0--x--0--0--0--x--x-|
G|-0-0--0-0-0--0-0-0--8--0--0--0-17-17-|
C|-0-0--0-0-0--0-0-0-----0--0--0-------|
   x x  x x x  x x x     x  x  x  

Guitar 2
D|-------------------------------------|
A|-------------------------------------|
F|-------------------10----------15-15-|
C|-0-0--0-0-0--0-0-0--x--0--0--0--x--x-|
G|-0-0--0-0-0--0-0-0--8--0--0--0-13-13-|
C|-0-0--0-0-0--0-0-0-----0--0--0-------|
   x x  x x x  x x x     x  x  x  

D|----------------10----10/17-----|
A|------------------11-------18---|
F|--------------------12-------19-|
C|-0-0--0-0-0-0-0-----------------|
G|-0-0--0-0-0-0-0-----------------|
C|-0-0--0-0-0-0-0-----------------|
   x x  x x x x x

D|-------------------------------------|
A|-------------------------------------|
F|-------------------10----------19-19-|
C|-0-0--0-0-0--0-0-0--x--0--0--0--x--x-|
G|-0-0--0-0-0--0-0-0--8--0--0--0-17-17-|
C|-0-0--0-0-0--0-0-0-----0--0--0-------|
   x x  x x x  x x x     x  x  x  

Guitar 1
D|--------------------------------------------------------|
A|--------------------------------------------------------|
F|-------------------------------------------19-19--19-19-|
C|-0-0--0-0-0-0-0-------0-0--0-0-0-0-0--------x--x---x--x-|
G|-0-0--0-0-0-0-0-------0-0--0-0-0-0-0-------17-17--17-17-|
C|-0-0--0-0-0-0-0-------0-0--0-0-0-0-0--------------------|
   x x  x x x x x       x x  x x x x x 

Guitar 2
D|--------------------------------------------------------|
A|--------------------------------------------------------|
F|-------------------------------------------10-10--10-10-|
C|-0-0--0-0-0-0-0-------0-0--0-0-0-0-0--------x--x---x--x-|
G|-0-0--0-0-0-0-0-------0-0--0-0-0-0-0--------8--8---8--8-|
C|-0-0--0-0-0-0-0-------0-0--0-0-0-0-0--------------------|
   x x  x x x x x       x x  x x x x x

Guitar 1
D|-------------------------------------------------------------------------|
A|-------------------------------------------------------------------------|
F|------------------------------------------------------------19-19--19-19-|
C|-0-0--0-0-0-0-0-------0-0--0-0-0-0-0-------------------------x--x---x--x-|
G|-0-0--0-0-0-0-0-------0-0--0-0-0-0-0------------------------17-17--17-17-|
C|-0-0--0-0-0-0-0-------0-0--0-0-0-0-0-------------------------------------|
   x x  x x x x x       x x  x x x x x 

Guitar 2
D|-------------------------------------------------------------------------|
A|-------------------------------------------------------------------------|
F|------------------------------------------------------------10-10--10-10-|
C|-0-0--0-0-0-0-0-------0-0--0-0-0-0-0-------------------------x--x---x--x-|
G|-0-0--0-0-0-0-0-------0-0--0-0-0-0-0-------------------------8--8---8--8-|
C|-0-0--0-0-0-0-0-------0-0--0-0-0-0-0-------------------------------------|
   x x  x x x x x       x x  x x x x x

D|---------------------------------------------------------------------|
A|---------------------------------------------------------------------|
F|--------------------10-10-10-10---10-10-10-10---10-10-10-10--+77777+-|
C|-0~---0~---0~---0~---x--x--x--x----x--x--x--x----x--x--x--x----------|
G|-0~---0~---0~---0~---8--8--8--8----8--8--8--8----8--8--8--8----------|
C|-0~---0~---0~---0~---------------------------------------------------|

D|------------------|
A|------------------|
F|------------------|
C|-0--------+77777+-|
G|-0----------------|
C|-0----------------|

D|------------------------------------------------------------|
A|------------------------------------------------------------|
F|---------------------------10----------------------------10-|
C|-0-0-0--0-0-0--0-0-0--------x--0-0-0--0-0-0--0-0-0--------x-|
G|-0-0-0--0-0-0--0-0-0--------8--0-0-0--0-0-0--0-0-0--------8-|
C|-0-0-0--0-0-0--0-0-0--00000----0-0-0--0-0-0--0-0-0--00000---|
                        xxxxx                         xxxxx

D|--------------------------------------------------|
A|--------------------------------------------------|
F|-14-14-14--14-14-14--14-14-14--15-15-15-15-15-----|
C|--x--x--x---x--x--x---x--x--x---x--x--x--x--x-----|
G|-12-12-12--12-12-12--12-12-12--13-13-13-13-13--x2-|
C|--------------------------------------------------|


| /  slide up
| \  slide down
| +  harmonic
| x  Mute note
============================================================================