Underminded - Excommunication Chords & Tabs

 

Excommunication Chords & Tabs

Underminded Chords & Tabs

Version: 1 Type: Tab 0 ratings
1 star 2 stars 3 stars 4 stars 5 stars
comments

Excommunication Tab

   
~ let ring
x how much times its played
X how much times you play the whole thing
P.M Palm Mute
H hammer
P pulloff

Intro
e|-----------------------------------------------------------------------|
B|-----------------------------------------------------------------------|
G|--------------------------8------7------8------7-----------------------|
D|---5~--------------5------8-x1---7-x1---8-x2---7-x2--X4- 5~------------|
A|---5~-x4-----------5-x2---6------5------6------5---------5~-x2---------|
E|---3~--------------3-------------------------------------3~------------|
stop. fast palm mutes between each chord(play 4x)

Verse
e|-----------------------------------------------------------------------|
B|-----------------------------------------------------------------------|
G|----------8------7-----------------------------------------------------|
D|---5------8------7--------------X4-------------------------------------|
A|---5-x4---6-x3---5-x6--------------------------------------------------|
E|---3-------------------------------------------------------------------|
stop stop (after 3x stop for a sec then play it 3 more times)
Intro 4x
Verse 4x 3rd time you play each chord longer

Before chorus
e|----------------------------------------------------------------------|
B|----------------------------------------------------------------------|
G|----------------------------------------------------------------------|
D|---3~-----------------------------------------------------------------|
A|---3~-x2--------------------------------------------------------------|
E|---1~-----------------------------------------------------------------|
"say or do to do.........."
[ Tab from: http://www.guitartabs.cc/tabs/u/underminded/excommunication_tab.html ]
Chorus
e|-----------------------------------------------------------------------|
B|-----------------------------------------------------------------------|
G|----------------10------7--------------palm mute-----------------------|
D|---5------8-----10-x3---7-x3----X4----8--------7-----------------------|
A|---5-x3---8-x3---8------5-------------8-x5-----7-x1--------------------|
E|---3------6---------------------------6--------5-----------------------|
"its the way - ITS THE WAY - that youve been for quite sometime...."
Intro 4x
Verse 2x (only bass)

Outro
e|----------------------------------------------------------------------|
B|----------------------------------------------------------------------|
G|-------------------------8-----7--------------------------------------|
D|---5-5-5555---5-5-5555---8-x6--7-x6---X3---5-5-5----------------------|
A|---5-5-5555---5-5-5555---6-----5-----------5-5-5----------------------|
E|---3-3-3333---3-3-3333---------------------3-3-3----------------------|

SOLO LIVE
e|----------------------------------------------------------------------|
B|------11----11----10----13----11-10h11p10h11p10-----11----11----10----|
G|--1212--1212--1212--1010--1010--10--------------1212--1212--1212------|
D|----------------------------------------------------------------------|
A|----------------------------------------------------------------------|
E|----------------------------------------------------------------------|

e|-----13----11--10h11p10p11h10-----------------------------------------------|
B|---------------------------------11----11----10----13----11--10h11p10h11p10-|
G|-1010--1010--10--------------1212--1212--1212--1010--1010--10---------------|
D|----------------------------------------------------------------------------|
A|----------------------------------------------------------------------------|
E|----------------------------------------------------------------------------|

After
e|----------------------------------------------------------------------|
B|----------------------------------------------------------------------|
G|------------8888-8---77777777-----------------------------------------|
D|---5555-5---8888-8---77777777-----------------------------------------|
A|---5555-5---6666-6---55555555-----------------------------------------|
E|---3333-3-------------------------------------------------------------|
P.M .... .... "HEY HEY.............FUCK YOU!........"

Before chorus
Chorus 8x
Comments