Underdose - Pie Chords & Tabs

 

Pie Chords & Tabs

Underdose Chords & Tabs

Version: 1 Type: Tab 0 ratings
1 star 2 stars 3 stars 4 stars 5 stars
comments

Pie Tab

Band: Underdose
Song: Pie
Tabbed by: Newg

Intro

E|-5-5--3-3--3-3--5-5-|
B|-5-5--3-3--5-5--7-7-|
G|-6-6--4-4--5-5--7-7-| x2
D|-7-7--5-5--5-5--7-7-|
A|-7-7--5-5--3-3--5-5-|
E|-5-5--3-3--3-3--5-5-|

Verse
[ Tab from: http://www.guitartabs.cc/tabs/u/underdose/pie_tab.html ]
E|----------------------------|
B|----------------------------|
G|----------------------------| x4
D|----------------------------|
A|------------3354--5576---(7)|
E|-5576--3354--------------(5)|
(On the fourth time play this and let it ring.)

Chorus

E|-------------|
B|-------------|
G|-------------| x4
D|-------5-7---|
A|-7--5--3-5-7-|
E|-5--3------5-|

How to play:
Intro
Verse
Chorus
Verse
Chorus
Verse

Any Questions or Comments: newghid@yahoo.com
Comments