Underdose - Pie Chords & Tabs

 

Pie Chords & Tabs

Underdose Chords & Tabs

Version: 1 Type: Bass Tab 0 ratings
1 star 2 stars 3 stars 4 stars 5 stars
comments

Pie Bass Tab

Band: Underdose
Song: Pie
Tabbed by: Newg

h=hammer on

Intro

G|--------------------|
D|--------------------| x2
A|-----------2h3--4h5-|
E|-4h5--2h3-----------|

Verse
[ Tab from: http://www.guitartabs.cc/tabs/u/underdose/pie_btab.html ]
G|---------------------|
D|---------------------| x4
A|---------33--55------|
E|-55--33----------(5)-|
(On the fourth time play this and let it ring.)

Chorus

G|-------------|
D|-------------| x4
A|-------3-5---|
E|-5--3------5-|

How to play:
Intro
Verse
Chorus
Verse
Chorus
Verse

Any Questions or Comments: newghid@yahoo.com
Comments