Undercover Ska - Cool Your Heels Chords & Tabs

 

Cool Your Heels Chords & Tabs

Undercover Ska Chords & Tabs

Version: 2 Type: Bass Tab 0 ratings
1 star 2 stars 3 stars 4 stars 5 stars
comments

Cool Your Heels Bass Tab

"Cool Your Heels" - Undercover S.K.A
Tabbed by Matt Hamann

One of the simpler songs off of "We've Come For Your Daughter," but still
somewhat difficult.  My original version is correct, but this updated version 
sounds better since it is played on the E, A, and D string instead of just the A.

Pre-Chorus:

 "It's cool, cool, cool!"
D ------------------7--
A ------5----7-/-9-----

Chorus:

A --7---9---7-10-12---7777-10-7--(4x)

Verse 1:

A --9-7---7h9-7-5---3h5---------------------
E ----------------------7-5---5-7-8888-5-7--

A --9-7---7h9-7-5---3h5---------------------
E ----------------------7-5---7-5-7777-7-7--

A --9-7---7h9-7-5---3h5---------------------
E ----------------------7-5---5-7-8888-5-7--

Verse 2:
[ Tab from: http://www.guitartabs.cc/tabs/u/undercover_ska/cool_your_heels_btab_ver_2.html ]
A --9-7---7h9-7-5---3h5----------------5-7--
E ----------------------7-5---5-7-8888------

A --9-7---7h9-7-5---3h5----------------5-7--
E ----------------------7-5---5-7-8888------

A --9-7---7h9-7-5---3h5-5555---------5------
E ---------------------------8-7---8---8-7--

Chorus during trumpet solo:

Sometimes:  A --7---9---7-10-12---7777-10-7----------

Sometimes:  D --------------------------------5-7--
	    A --7---9---7-10-12---7777-10-7--------

Verse 3:

A --9-7---7h9-7-5---3h5----------------5--
E ----------------------7-5---5-7-8888----

A --9-7---7h9-7-5---3h5-5555-----------5-7--
E ---------------------------8-7---7-8------

A --9-7---7h9-7-5---3h5-5555---------5------
E ---------------------------8-7---8---8-7--

Looks hard, but practice.  It'll become easy.
E-mail me at matt1@jps.net or gartuck@hotmail.com
Website at: http://www.jps.net/matt1/index.html
Comments