Undercast - Engraved Chords & Tabs

 

Engraved Chords & Tabs

Undercast Chords & Tabs

Version: 1 Type: Bass Tab

Engraved Bass Tab

   
Title:Engraved
Artist:Undercast

d|-------------------|
g|-------------------|
a|------2-2-------5-5|
E|0-0---------3-3----|

g|-----|
d|-----|
a|-----|
E|00000|

g|----------------|
d|----------------|
a|----4444----8888|
E|2222----4444----|
[ Tab from: http://www.guitartabs.cc/tabs/u/undercast/engraved_btab.html ]
g|---------------|
d|---------------|
a|--------------5|
E|00000000000000-|

g|---------------------|
d|---------------------|
a|--------------5-4-7-3|
E|00000000000000-------|

g|------------------|
d|------------------|
a|------------------|
E|0000---0000---0000|

g|------------------------|
d|------------------------|
a|444444777777333333999999|
E|------------------------|

easy and fun to play enjoy