Undeclinable - Whatever Chords & Tabs

 

Whatever Chords & Tabs

Undeclinable Chords & Tabs

Version: 1 Type: Tab 0 ratings
1 star 2 stars 3 stars 4 stars 5 stars
comments

Whatever Tab

Author/Artist: Undeclinable (band's new name)
Title: Whatever
Album: Sound City Burning
Transcribed by: Edoardo Felici

Good song by Undeclinable, formerly known as Undeclinable Ambuscade, but they
made their name shorter for some reason...

The rhythm in the chorus is tricky, don't change chord too soon!


#intro#  
guitar 1  
-|----------------------------------------------------------------------------
-|----------------------------------------------------------------------------
-|-14-14--14-14--14-14--14-14--14-14-14--10-10--10-10--10-10--10-10-10-10-10--
-|-14-14--14-14--14-14--14-14--14-14-14--10-10--10-10--10-10--10-10-10-10-10--
-|----------------------------------------------------------------------------
-|----------------------------------------------------------------------------
                                                                              
							  _______       _____
		  			repeat from beginning	1|	    2|	    	
--------------------------------|--------------------------------|------------
--------------------------------|--------------------------------|------------
--------------------------------|--------------------------------|------------
--10-10--10-10--10-10--10-10-10-|-10-10--10-10--10-10--10-10-10--|-12-12-12---
--10-10--10-10--10-10--10-10-10-|-10-10--10-10--10-10--10-10-10--|-12-12-12---
--------------------------------|--------------------------------|------------
                                                                              

#chorus# 
"This is a song that I wrote for you..."

guitar 1
-|---------------------------------------------------------|------------------
-|---------------------------------------------------------|-repeat-once------
-|---------------------9-9-9--7--7-7--7-7-7--4-4-4--7-7-7--|------------------
-|-7--7-7--7-7-7--7-7--9-9-9--7--7-7--7-7-7--4-4-4--7-7-7--|------------------
-|-7--7-7--7-7-7--7-7--7-7-7--5--5-5--5-5-5--2-2-2--5-5-5--|------------------
-|-5--5-5--5-5-5--5-5--------------------------------------|------------------
                                                                              
guitar 2
-|---------------------------------------------------------|------------------
-|---------------------------------------------------------|-repeat-once------
-|---------------------9-9-9--7--7-7--7-7-7--6-6-6--7-7-7--|------------------
-|-7--7-7--7-7-7--7-7--9-9-9--7--7-7--7-7-7--6-6-6--7-7-7--|------------------
-|-7--7-7--7-7-7--7-7--7-7-7--5--5-5--5-5-5--4-4-4--5-5-5--|------------------
-|-5--5-5--5-5-5--5-5--------------------------------------|------------------
        
                                                                      
guitar 1								|4x|	
-|-----------------------------------------------------------------|----------
-|-----------------------------------------------------------------|----------
-|-4-4-4-4-4-4-4-4--7-7-7-7-7-7-7-7--4-4-4-4-4-4-4-4--7-7-7-7--7-6~|----------
-|-4-4-4-4-4-4-4-4--7-7-7-7-7-7-7-7--4-4-4-4-4-4-4-4--7-7-7-7------|-7-7-7-7--
-|-2-2-2-2-2-2-2-2--5-5-5-5-5-5-5-5--2-2-2-2-2-2-2-2--5-5-5-5------|-7-7-7-7--
-|-----------------------------------------------------------------|-5-5-5-5--
            
"may I persuade you to go on..."                                                                  
guitar 2							 	|4x|
-|-9----------------9----------------9---------------9-------------|----------
-|----7--10------------7--10------------7--10----------------------|----------
-|-----------------------------------------------------------------|-14141414-
-|-----------------------------------------------------------------|-14141414-
-|-----------------------------------------------------------------|-12121212-
-|-----------------------------------------------------------------|----------
                                                                              
[ Tab from: http://www.guitartabs.cc/tabs/u/undeclinable/whatever_tab.html ]
#verse#
guitar 1
-|-------------------------------------------------------------------|--------
-|-------------------------------------------------------------------|--------
-|-----------------------------------6-6-6-6-6-6-6-6-6-6-6-6-6-6-6-6-|--------
-|-7-7-7-7-7-7-7-7--4-4-4-4-4-4-4-4--6-6-6-6-6-6-6-6-6-6-6-6-6-6-6-6-|--------
-|-7-7-7-7-7-7-7-7--4-4-4-4-4-4-4-4--4-4-4-4-4-4-4-4-4-4-4-4-4-4-4-4-|--------
-|-5-5-5-5-5-5-5-5--2-2-2-2-2-2-2-2----------------------------------|--------
                                                                              
guitar 2
-|---------------------------------------------------------------------|------
-|---------------------------------------------------------------------|------
-|-1414141414141414-1111111111111111------------------13131313-14141414|------
-|-1414141414141414-1111111111111111-1111111111111111-13131313-14141414|------
-|-1212121212121212-9-9-9-9-9-9-9-9--1111111111111111-11111111-12121212|------
-|-----------------------------------9-9-9-9-9-9-9-9-------------------|------
        
                                                                      
guitar 1
-|---------------------------------------------------------------------|------
-|---------------------------------------------------------------------|------
-|-----------------------------------6-6-6-6-6-6-6-6--7-7-7-7-7-7-7-7--|------
-|-7-7-7-7-7-7-7-7--4-4-4-4-4-4-4-4--6-6-6-6-6-6-6-6--7-7-7-7-7-7-7-7--|------
-|-7-7-7-7-7-7-7-7--4-4-4-4-4-4-4-4--4-4-4-4-4-4-4-4--5-5-5-5-5-5-5-5--|------
-|-5-5-5-5-5-5-5-5--2-2-2-2-2-2-2-2------------------------------------|------
                                                                              
guitar 2
-|---------------------------------------------------------------------|------
-|---------------------------------------------------------------------|------
-|-1414141414141414-1111111111111111-----------------------------------|------
-|-1414141414141414-1111111111111111-1111111111111111-1212121212121212-|------
-|-1212121212121212-9-9-9-9-9-9-9-9--1111111111111111-1212121212121212-|------
-|-----------------------------------9-9-9-9-9-9-9-9--1010101010101010-|------
                                                                              

play #chorus#


#bridge#
"analyse the papers..."

guitar 1  (play 4x)
-|--------------------------------------------------------------------|-------
-|--------------------------------------------------------------------|-------
-|---------------------------------------------------9-9-9-9-9-9-9-9--|-------
-|-7-7-7-7-7-7-7-7--4-4-4-4-4-4-4-4-4-4-4-4-4-4-4-4--9-9-9-9-9-9-9-9--|-------
-|-7-7-7-7-7-7-7-7--4-4-4-4-4-4-4-4-4-4-4-4-4-4-4-4--7-7-7-7-7-7-7-7--|-------
-|-5-5-5-5-5-5-5-5--2-2-2-2-2-2-2-2-2-2-2-2-2-2-2-2-------------------|-------
                                                                              
guitar 2  (play 4x)
-|--------------------------------------------------------------------|-------
-|--------------------------------------------------------------------|-------
-|-1414141414141414-11111111111111111111111111111111-9-9-9-9-9-9-9-9--|-------
-|-1414141414141414-11111111111111111111111111111111-9-9-9-9-9-9-9-9--|-------
-|-1212121212121212-9-9-9-9-9-9-9-9-9-9-9-9-9-9-9-9--7-7-7-7-7-7-7-7--|-------
-|--------------------------------------------------------------------|-------


play #chorus#
                                                                              
after playing last part of chorus play this:

#end#
"what does it take..."

-|--------------------------------------------------------------------|-------
-|--------------------------------------------------------------------|-------
-|-6-6-6-6-6-6-6-6--7-7-7-7-7-7-7-7--4-4-4-4-4-4-4-4--7--let ring-----|-------
-|-6-6-6-6-6-6-6-6--7-7-7-7-7-7-7-7--4-4-4-4-4-4-4-4--7---------------|-------
-|-4-4-4-4-4-4-4-4--5-5-5-5-5-5-5-5--2-2-2-2-2-2-2-2--5---------------|-------
-|--------------------------------------------------------------------|-------
                                                                              

-|-9----------------9----------------9----------------------------------------
-|----7--10------------7--10------------7--10---------------------------------
-|----------------------------------------------------------------------------
-|----------------------------------------------------------------------------
-|----------------------------------------------------------------------------
-|----------------------------------------------------------------------------
                                                                              
Lyrics

Come outdoors, you'll soon be trashed and 
swept away. The thought in your heart
it makes you so afraid you'll 
never come outside again

This is a song that I wrote for you,
but you will never receive it
you always carefully lock your doors.
Detest all kinds of whatever. May I persuade
you to go on holding on to this song?

National Geographic's Dangerzone isn't much 
of a help. It leaves you pegged down
to your seat at home, all alone

Analyse the papers and you'll conclude that
you stand in your right. To conclude that it's 
very dangerous to go outside nowadays.
There is a chance that a plane falls down 
right on top of your head while you least 
expect it to do so. But get a grip on your own
life and look way beyond

You sit hours on your own
What does it take to get you out of there?  
Comments