Undeclinable - Lapd Chords & Tabs

 

Lapd Chords & Tabs

Undeclinable Chords & Tabs

Version: 1 Type: Tab 0 ratings
1 star 2 stars 3 stars 4 stars 5 stars
comments

Lapd Tab

Author/Artist: Undeclinable
Title: LAPD
Album: Sound City Burning
Transcribed by: Edo
Email: edoardofelici@hotmail.com

Song starts with the sound of steps and police sirens...

#intro#
Beneath is indicated how many times you play each note
Guitar 1&2 
(Guitar 2 joins after half of first note)
				(play 3x)|				
-|---------------------------------------|-----------------------------------
-|---------------------------------------|-----------------------------------
-|---------------------------------------|-----------------------------------
-|---------------------------------------|-----------------------------------
-|--5---8---10---13--12--10---8---6------|-5-5-5-5-5-5-5-5-5-6---------------
-|---------------------------------------|-----------------------------------
   16x 16x  8x   3x  3x  2x  8x  8x                                         


#chorus#		      
Guitar 1&2		      (play 2x)|       			
-|-------------------------------------|---------------------------------|----
-|-------------------------------------|---------------------------------|----
-|----------------------------8-8------|----------------8-8-8-8-8-8-8-8--|----
-|-8-8-8-8--5-5-5-5--4-4-4-4--8-8-9-9--|-4-4-4-4-4-4-4--8-8-8-8-8-8-8-8--|----
-|-8-8-8-8--5-5-5-5--4-4-4-4--6-6-7-7--|-4-4-4-4-4-4-4--6-6-6-6-6-6-6-6--|----
-|-6-6-6-6--3-3-3-3--2-2-2-2------7-7--|-2-2-2-2-2-2-2-------------------|----
 "LAPD..."                                                                    

play #intro# 
         
play #chorus#
[ Tab from: http://www.guitartabs.cc/tabs/u/undeclinable/lapd_tab.html ]
#bridge#
Guitar 1
-|-----------------------------------------------------------------------|----
-|-----------------------------------------------------------------------|----
-|------------------------------------------------------8-8-8-8-8-8-8-8--|----
-|-8-8-8-8-8-8-8-8--5-5-5-5-5-5-5-5-5--4-4-4-4-4-4-4-4--8-8-8-8-8-8-8-8--|----
-|-8-8-8-8-8-8-8-8--5-5-5-5-5-5-5-5-5--4-4-4-4-4-4-4-4--6-6-6-6-6-6-6-6--|----
-|-6-6-6-6-6-6-6-6--3-3-3-3-3-3-3-3-3--2-2-2-2-2-2-2-2-------------------|----
 "Always after me..."  
                                                                  (play 4x)         
Guitar 2
-|-----------------------------------------------------------------------|----
-|-----------------------------------------------------------------------|----
-|------------------4-4-4-4-4-4-4-4-4--5-5-5-5-5-5-5-5--8-8-8-8-8-8-8-8--|----
-|-8-8-8-8-8-8-8-8--4-4-4-4-4-4-4-4-4--5-5-5-5-5-5-5-5--8-8-8-8-8-8-8-8--|----
-|-8-8-8-8-8-8-8-8--2-2-2-2-2-2-2-2-2--3-3-3-3-3-3-3-3--6-6-6-6-6-6-6-6--|----
-|-6-6-6-6-6-6-6-6-------------------------------------------------------|----
                                                                              
#solo#
Guitar 2  (Guitar 1 plays the bridge)
-|----------------------------------------------------------------------------
-|----------------------------------------------------------------------------
-|-------14-15--17b19-19r17-15--18b20r18-18b20r18-18b20r18-18b20r18-----------
-|-12-12----------------------------------------------------------------------
-|----------------------------------------------------------------------------
-|----------------------------------------------------------------------------
                                                                              
					(last note is played during chords)	
--------------------------------------------------------------------|---------
--------21-21-------21-21-------------------------------------------|---------
--20b22-------20b22-------20b22b22b22r20p18--15--------------14-----|---------
--------------------------------------------------------------------|---------
--------------------------------------------------------------------|---------
--------------------------------------------------------------------|---------
                                                                              
#outro#
Guitar 1&2 (play whole line twice then repeat last part) 
-|---------------------------------------------------|-------------------|----
-|---------------------------------------------------|-------------------|----
-|---------------------------------------------------|-------------------|----
-|-8-8-8-8-8-8-8-8--1212121212121212--13131313131313---5-5-5-5--6-6-6-6--|----
-|-8-8-8-8-8-8-8-8--1212121212121212--13131313131313---5-5-5-5--6-6-6-6--|----
-|-6-6-6-6-6-6-6-6--1010101010101010--11111111111111---3-3-3-3--4-4-4-4--|----
 "All these accusations..."                                                                             

Guitar 1		    Guitar 1&2		       (play 5x)|#end# 			
-|-------------------------|------------------------------------|-----------|-
-|-------------------------|------------------------------------|-----------|-
-|----------------8-8xx8-8-|----------------------------8-8-----|-8-8xx8-8--|-
-|-8-8--5-5--4-4--8-8xx8-8-|-8-8-8-8--5-5-5-5--4-4-4-4--8-8-9-9-|-8-8xx8-8--|-
-|-8-8--5-5--4-4--6-6xx6-6-|-8-8-8-8--5-5-5-5--4-4-4-4--6-6-7-7-|-6-6xx6-6--|-
-|-6-6--3-3--2-2-----------|-6-6-6-6--3-3-3-3--2-2-2-2------7-7-|-----------|-

Lyrics:
Iím posing on the sidewalk. 
Hereís where Iím working at night. 
Theyíre also working at night. 
They know Iíve known it all along. 
They want me off the street, theyíre getting out of the car. 
They try to corner me in.

L.A.P.D. Why are they always after me?

Thereís blue on every corner. 
How am I supposed to make a living? 
They never leave me alone. They are as cold as stone. 
They really donít give a damn about the person I am. 
I run as fast as I can.
All these accusations. What are you trying to say? 
Iíve been working my ass off all goddamn summer. 
If I had the choice to live a perfect life. I wouldnít hesitate. 
Iíd be anywhere but here tonight.
Turn around now, Ďcause I will never turn myself in. 
I know better places to spend the night.
Comments