Uncommonmenfrommars - Fat Boy Chords & Tabs

 

Fat Boy Chords & Tabs

Uncommonmenfrommars Chords & Tabs

Version: 1 Type: Tab 0 ratings
1 star 2 stars 3 stars 4 stars 5 stars
comments

Fat Boy Tab

-------------------------------------------------------------------------------
			     Fat Boy - Uncommonmenfrommars
-------------------------------------------------------------------------------

Here's the beginning of fat boy, it's got most of the parts in it.

By: Dwight Aberle
	belgwaffler@yahoo.com

Intro:

e|---------------------------------------------------------------------------|
B|---------------------------------------------------------------------------|Guitar 1
G|---------------------------------------------------------------------------|
D|----------7----------------------------------------------------------------|
A|--4-4-4-4------------7------------------7-------4-----4--------------------|
E|-----------------4-4---4-4-4/5--5-5-5-5---5-555---5-5----------------------|
  Palm muted...

e|---------------------------------------------------------------------------|
B|---------------------------------------------------------------------------|Guitar 2
G|-------------------Nothing Yet---------------------------------------------|
D|---------------------------------------------------------------------------|
A|---------------------------------------------------------------------------|
E|---------------------------------------------------------------------------|

e|---------------------------------------------------------------------------|
B|---------------------------------------------------------------------------|Guitar 1
G|---------------------------------------------------------------------------|
D|----------7-6--------------------------------------------------------------|
A|--4-4-4-4------------7------------------7-------4-----4--------------------|
E|-----------------4-4---4-4-4/5--5-5-5-5---5-555---5-5----------------------|
  Palm muted...
e|---------------------------------------------------------------------------|
B|---------------------------------------------------------------------------|Guitar 2
G|---------------------------------------------------------------------------|
D|---------------------------------------------------------------------------|
A|---------------------7------------------7-------4-----4--------------------|
E|-----------------4-4---4-4-4/5--5-5-5-5---5-555---5-5----------------------|
  Palm muted...
e|---------------------------------------------------------------------------|
B|---------------------------------------------------------------------------|Guitar 1
G|---------------------------------------------------------------------------|
D|----------7----------------------------------------------------------------|
A|--4-4-4-4------------7------------------7-------4-----4--------------------|
E|-----------------4-4---4-4-4/5--5-5-5-5---5-555---5-5----------------------|
  Palm muted...

e|---------------------------------------------------------------------------|
B|---------------------------------------------------------------------------|Guitar 2
G|---------------------------------------------------------------------------|
D|----------7----------------------------------------------------------------|
A|--4-4-4-4------------7------------------7-------4-----4--------------------|
E|-----------------4-4---4-4-4/5--5-5-5-5---5-555---5-5----------------------|
  Palm muted...
e|---------------------------------------------------------------------------|
B|---------------------------------------------------------------------------|Guitar 1
G|---------------------------------------------------------------------------|
D|----------7-6--------------------------------------------------------------|
A|--4-4-4-4------------7------------------7-------4-----4--------------------|
E|-----------------4-4---4-4-4/5--5-5-5-5---5-555---5-5----------------------|
  Palm muted...
e|---------------------------------------------------------------------------|
B|---------------------------------------------------------------------------|Guitar 2
G|---------------------------------------------------------------------------|
D|----------7-6--------------------------------------------------------------|
A|--4-4-4-4------------7------------------7-------4-----4--------------------|
E|-----------------4-4---4-4-4/5--5-5-5-5---5-555---5-5----------------------|
  Palm muted...
e|---------------------------------------------------------------------------|
B|---------------------------------------------------------------------------|Guitar 1
G|---------------------------------------------------------------------------|
D|---------------------------------------------------------------------------|
A|---------------------------------------------------------------------------|
E|---------------------------------------------------------------------------|
[ Tab from: http://www.guitartabs.cc/tabs/u/uncommonmenfrommars/fat_boy_tab.html ]
e|---------------------------------------------------------------------------|
B|---------------------------------------------------------------------------|Guitar 2
G|--6-6-6--------------------------------------------------------------------|
D|--6-6-6--6-6-6--6-6-6--x-x-x-xxx-------------------------------------------|
A|--4-4-4--6-6-6--6-6-6--x-x-x-xxx-------------------------------------------|
E|---------4-4-4--5-5-5--x-x-x-xxx-------------------------------------------|

e|---------------------------------------------------------------------------|
B|---------------------------------------------------------------------------|Guitar 1
G|---------------------------------------------------------------------------|
D|---------------------------------------------------------------------------|
A|---------------------------------------------------------------------------|
E|---------------------------------------------------------------------------|

e|---------------------------------------------------------------------------|
B|---------------------------------------------------------------------------|Guitar 2
G|--6-6-6--------------------------------------------------------------------|
D|--6-6-6--6-6-6--6-6-6-xxx-x-x-x-xxx----------------------------------------|
A|--4-4-4--6-6-6--6-6-6-xxx-x-x-x-xxx----------------------------------------|
E|---------4-4-4--5-5-5-xxx-x-x-x-xxx----------------------------------------|

e|---------------------------------------------------------------------------|
B|---------------------------------------------------------------------------|Guitar 1
G|--6-6-6--------------------------------------------------------------------|
D|--6-6-6--6-6-6--6-6-6--x-x-x-xxx-------------------------------------------|
A|--4-4-4--6-6-6--6-6-6--x-x-x-xxx-------------------------------------------|
E|---------4-4-4--5-5-5--x-x-x-xxx-------------------------------------------|

e|---------------------------------------------------------------------------|
B|---------------------------------------------------------------------------|Guitar 2
G|--6-6-6--------------------------------------------------------------------|
D|--6-6-6--6-6-6--6-6-6--x-x-x-xxx-------------------------------------------|
A|--4-4-4--6-6-6--6-6-6--x-x-x-xxx-------------------------------------------|
E|---------4-4-4--5-5-5--x-x-x-xxx-------------------------------------------|

e|---------------------------------------------------------------------------|
B|---------------------------------------------------------------------------|Guitar 1
G|--6-6-6--------------------------------------------------------------------|
D|--6-6-6--6-6-6--6-6-6--6-6-6-----------------------------------------------|
A|--4-4-4--6-6-6--6-6-6--6-6-6-----------------------------------------------|
E|---------4-4-4--5-5-5--5-5-5-----------------------------------------------|


e|---------------------------------------------------------------------------|
B|---------------------------------------------------------------------------|Guitar 2
G|--6-6-6--------------------------------------------------------------------|
D|--6-6-6--6-6-6--6-6-6--6-6-6-----------------------------------------------|
A|--4-4-4--6-6-6--6-6-6--6-6-6-----------------------------------------------|
E|---------4-4-4--5-5-5--5-5-5-----------------------------------------------|



Verse:

e|---------------------------------------------------------------------------|
B|---------------------------------------------------------------------------|Guitar 1 & 2
G|--6-6-6--6-6-6---------------------6-6-6-----------------------------------|
D|--6-6-6--6-6-6--6-6-6--6-6-6-------6-6-6--6-6-6--6-6-6--6-6-6--------------|
A|--4-4-4--5-5-5--6-6-6--6-6-6-------4-4-4--6-6-6--6-6-6--6-6-6--------------|
E|----------------5-5-5--5-5-5--------------4-4-4--5-5-5--5-5-5--------------|

e|---------------------------------------------------------------------------|
B|---------------------------------------------------------------------------|Guitar 1 & 2
G|--6-6-6--6-6-6---------------------6-6-6--6-6-6----------------------------|
D|--6-6-6--6-6-6--6-6-6--6-6-6-------6-6-6--6-6-6--6-6-6--6-6-6--------------|
A|--4-4-4--5-5-5--6-6-6--6-6-6-------4-4-4--5-5-5--6-6-6--6-6-6--------------|
E|----------------5-5-5--5-5-5---------------------5-5-5--5-5-5--------------|


Bridge:


	Let it ring........................   ............................
e|---------------------------------------------------------------------------|
B|---------------------------------------------------------------------------|
G|---------------------------------------------------------------------------|
D|--666------------------------------------666-------------------------------|
A|--666------------------------------------666-------------------------------|
E|--444------------------------------------444-------------------------------|
         All my friend's have abandoned me	So I bought a bigger

e|---------------------------------------------------------------------------|
B|---------------------------------------------------------------------------|
G|---------------------------------------------------------------------------|
D|-------6----------------6--------------------------------------------------|
A|-------6-(Strum)--------6-(Palm mute)--------------------------------------|
E|-------5----------------5--------------------------------------------------|  	
	TV (ah oh ah oh, ah oh ah oh)
Comments