Uncle Tupelo - John Hardy Chords & Tabs

 

John Hardy Chords & Tabs

Uncle Tupelo Chords & Tabs

Version: 2 Type: Bass Tab 0 ratings
1 star 2 stars 3 stars 4 stars 5 stars
comments

John Hardy Bass Tab

B A S S L I N E
===============
  JOHN HARDY
===============
as performed by Uncle Tupelo
from their album "No Depression"

transcribed by Chip Rogers
		(crogers@d.umn.edu)



The main bassline for the entire song goes like this...(pretty close)
[ Tab from: http://www.guitartabs.cc/tabs/u/uncle_tupelo/john_hardy_btab_ver_2.html ]
G----------------------------------------
D----------------0--3--2--0-(0)----------   x3 then...
A-------0-2--3------------------2-0------
E-----3----------------------------------	
	

G------------------------------------------------------ 
E-------------------------------------0-0-------------- 
A----------1-1-0--------------------------0------------ back to
E---3-3-3--------3-3-0-3-------3-3-3--------3-(3-3)---- main riff



(The chorus is the same but played harder with a few extra 
 notes in there.) 


It's a very simple bassline if you just sit and play along
with the album to hear the rhythms.

Comments