Uncle Kracker - In A Little While Solo Chords & Tabs

 

In A Little While Solo Chords & Tabs

Uncle Kracker Chords & Tabs

Version: 1 Type: Tab 0 ratings
1 star 2 stars 3 stars 4 stars 5 stars
comments

In A Little While Solo Tab

well, this is all i could tab for now, whoever did the chord version
needs to do it again, cuz, dang, well, any suggestions email krazykid881@aol.com


[ Tab from: http://www.guitartabs.cc/tabs/u/uncle_kracker/in_a_little_while_solo_tab.html ]
Repeat 3x
e---------10---10--12--14--14--12--10-------------
B---10h12----12-----------------------------------
G-------------------------------------------------
D-------------------------------------------------
A-------------------------------------------------
E-------------------------------------------------

just once
e---------10---10--14-12-14-12-14-12-14-12-10-----
B---10h12----12-----------------------------------
G-------------------------------------------------
D-------------------------------------------------
A-------------------------------------------------
E-------------------------------------------------


well there it is, enjoy



Comments