Uncle Kracker - Follow Me Chords & Tabs

 

Follow Me Chords & Tabs

Uncle Kracker Chords & Tabs

Version: 11 Type: Tab 0 ratings
1 star 2 stars 3 stars 4 stars 5 stars
comments

Follow Me Tab

Uncle Kracker, Follow Me

Tabbed By Steven Mach, scottmachs@yahoo.com

The following tab is correct, listen to the song if
you need to.
[ Tab from: http://www.guitartabs.cc/tabs/u/uncle_kracker/follow_me_tab_ver_11.html ]
e ----------------------------------------
B ----------------------------------------
G --12h14-12--10--10----------12-12h14----
D --------------12--12-10-----------------
A -----------------------12---------------
E ----------------------------------------

e ----------------------------------------
B ----------------------------------------
G --12h14-12--10--10----------10h12-10----
D --------------12--12-10-----------------
A -----------------------12---------------
E ----------------------------------------


Comments