Uncle Kracker - Follow Me Chords & Tabs

 

Follow Me Chords & Tabs

Uncle Kracker Chords & Tabs

Version: 1 Type: Bass Tab 0 ratings
1 star 2 stars 3 stars 4 stars 5 stars
comments

Follow Me Bass Tab

   
Song:  Follow Me
Artist:  Uncle Kracker
Tabbed By:  Kris Klassy

this is pretty easy to figure out.... 
also i'm including the guitar solo in the beginning 
if somethings wrong, 
let me know at 69fry@excite.com so i can fix it up 
have fun 

(Guitar Solo) 
E ------------------------------------------------------------ 
B ------------------------------------------------------------- 
G -12—14h--12---10-------10-----------------12--12--14h-------- 
D --------------------12------12--10--------------------------- 
A -------------------------------------12---------------------- 
E ------------------------------------------------------------- 

E ------------------------------------------------------------- 
B ------------------------------------------------------------- 
G -12—14h---12---10------10---------------12---12--10----------- 
D -------------------12------12---10--------------------------- 
A ------------------------------------12----------------------- 
E ------------------------------------------------------------- 
[ Tab from: http://www.guitartabs.cc/tabs/u/uncle_kracker/follow_me_btab.html ]
Main Bass Riff (Played Throughout Most Of The Song) 
G ------------------------------ 
D --------------------------0-3- 
A --------------0-1---3-3------- 3x 
E 1-----1-1--------------------- 

G ---------------------------- 
D ---------------------------- 
A ------------1---3----------- 1x 
E 1-----1-1-----------1------- 

Bridge 
G -------------------------------- 
D -------------------------------- 
A -------------------------------- 
E 33333333333333331111111111111111 

G -------------------------------- 
D -------------------------------- 
A ----------------3333333333333333 
E 3333333333333333---------------- 

Main Bass Riff (Play Until The End Of The Song) 
G ------------------------------ 
D --------------------------0-3- 
A --------------0-1---3-3------- 3x 
E 1-----1-1--------------------- 

G ---------------------------- 
D ---------------------------- 
A ------------1---3----------- 1x 
E 1-----1-1-----------1------- 

these tabs are all accurate, 
and play whatever rhythm you want for the bridge. 
Comments