Uncle Ho - Come On Come Clean Chords & Tabs

 

Come On Come Clean Chords & Tabs

Uncle Ho Chords & Tabs

Version: 1 Type: Chords 0 ratings
1 star 2 stars 3 stars 4 stars 5 stars
comments

Come On Come Clean Chords

   
Submitted by: Child of Bodom

Artist: Uncle Ho
Song: Come on. come clean

Standard Tuning (EADGBE)

Intro/Chorus

E C x 4     at the foruth time E C A G F A

The C looks like this:

E------------
B------------
G------------
D-----5------
A-----3-----
E-----3-----


Verse:
[ Tab from: http://www.guitartabs.cc/tabs/u/uncle_ho/come_on_come_clean_crd.html ]
E  C
E  C
E  C#
E  C#

Repeat Chorus

After the drum "solo" it goes like this:

E-------------------------------------------
B-------------------------------------------
G-------------------------------------------
D------------------------------------------- X 3
A-------------------------------------------
E---3-00--3-00--3-00--3-00----------- 

(just listen to teh rhythm, shouldn´t be that hard!)

Repeat Chorus
Comments