Uncle Brian - Postcards Chords & Tabs

 

Postcards Chords & Tabs

Uncle Brian Chords & Tabs

Version: 1 Type: Tab 0 ratings
1 star 2 stars 3 stars 4 stars 5 stars
comments

Postcards Tab

Uncle Brian- Postcards
Tabbed by james pendle. Send ur comments or other tab requests to jpskatez@hotmail.com



Standard Tuning
Intro
E |-------7--5--10--9--7--5--3--2--0--2--0-------7-5--14--12--10--9-----------|
B |-3-8/10---------------------------------3-8/10------------------10--10--12-|
G |---------------------------------------------------------------------------|
D |---------------------------------------------------------------------------|
A |---------------------------------------------------------------------------|
E |---------------------------------------------------------------------------|


Main Riff
[ Tab from: http://www.guitartabs.cc/tabs/u/uncle_brian/postcards_tab.html ]
E |---------------------------------------------------------------------------|
B |---------------------------------------------------------------------------|
G |--777xx-------999xx---------777xx------------------------------------------|
D |--777xx-777xx-999xx-5xx-7xx-777xx-777xx-55555555/7-------------------------|
A |--555xx-777xx-777xx-5xx-7xx-555xx-777xx-55555555/7-------------------------|
E |--------555xx-------3xx-5xx-------555xx-33333333/5-------------------------|
Main riff is the verse and the chorus palm mute the chords for the second verse.

The Ska Bit (hey little girl im missing you)

Ska up stroaks- the numbers arent exact so just listen to the song for the changes
E |--3-3--5-5-7-7-7-7-3-3-3-3----------------------------------------|
B |--3-3--5-5-7-7-7-7-3-3-3-3----------------------------------------|
G |--3-3--5-5-7-7-7-7-3-3-3-3----------------------------------------|
D |--------------------------------------7-7-7-7-7-7-7-7-7-----------|
A |--------------------------------------7-7-7-7-7-7-7-7-7-----------|
E |--------------------------------------5-5-5-5-5-5-5-5-5-----------|


Interlude (she just doesnt understand)
E |--------------------------------------------------------------------------|
B |--------------------------------------------------------------------------|
G |--------------------------------------------------------------------------|
D |--2--4--5------2--5--7----------------------------------------------------|
A |--2--4--5------2--5--7----------------------------------------------------|
E |--0--2--3------0--3--5----------------------------------------------------|

After this there is a bass solo and then play the intro again.
Then play the main riff until the end.
Comments