Unbroken (baltimore) - Trust Your Instincts Chords & Tabs

 

Trust Your Instincts Chords & Tabs

Unbroken (baltimore) Chords & Tabs

Version: 1 Type: Tab 0 ratings
1 star 2 stars 3 stars 4 stars 5 stars
comments

Trust Your Instincts Tab

Band- Unbroken (Baltimore)
Song- Trust your Instincts
Album- Price I Paid
Tuning- CGDGBE
Tabbed by : Roger Funk


Intro/Verse (4 times)
E|-------------------------------------------------------------------------|
B|-------------------------------------------------------------------------|
G|-------------------------------------------------------------------------|
D|-------------------------------------------------------------------------|
G|--0-0-7--0-2-3--0-3-5--0-2-3--3-5-2-3--0-0-7--0-2-3--0-3-5--0-2-3--3-5-2-|
C|--0-0-7--0-2-3--0-3-5--0-2-3--3-5-2-3--0-0-7--0-2-3--0-3-5--0-2-3--3-5-2-|
PM . . .  . . .  . . .  . . .  . . . .  . . .  . . .  . . .  . . .  . .
[ Tab from: http://www.guitartabs.cc/tabs/u/unbroken_baltimore/trust_your_instincts_tab.html ]
Chorus
E|------------------------------------------------------------------------|
B|------------------------------------------------------------------------|
G|------------------------------------------------------------------------|
D|------------------------------------------------------------------------|
G|-------------12--------5-3-2-3-2-------------12/11-------------2-3-2-0--|
C|--0--0-0-0-0-12----0-0-5-3-2-3-2--0--0-0-0-0-12/11--0--0-0-0-0-2-3-2-0--|
PM  .  . . . .                      .  . . . .        .  . . . .

Bridge
E|-------------------------------------------------------||
B|-------------------------------------------------------||
G|-------------------------------------------------------||
D|-------------------------------------------------------||
G|--5-3-2-3-2-0---5-3-2-3-2---5-3-2-3-2-0---5-3-2-3-2-3--||
C|--5-3-2-3-2-0---5-3-2-3-2---5-3-2-3-2-0---5-3-2-3-2-3--|| (repeat all 3)


Break (4 times)
E|---------------------------------------|-----(last time only)----|
B|---------------------------------------|-------------------------|
G|---------------------------------------|-------------------------|
D|---------------------------------------|-------------------------|
G|--5-5-5-5--5-5-5-5--3-5--0--5-0-2-3----|--5-5-5-5--5-5-5-5--3-5--|
C|--5-5-5-5--5-5-5-5--3-5--0--5-0-2-3----|--5-5-5-5--5-5-5-5--3-5--|


-----Arramgement-------
Intro/verse
Chorus
Bridge
Verse
Chorus
Bridge
---------break---------
Verse
Chorus
Bridge
--- lead over chorus---
Bridge as outro



Comments