Ultraspank - 5 Chords & Tabs

 

5 Chords & Tabs

Ultraspank Chords & Tabs

Version: 1 Type: Tab 0 ratings
1 star 2 stars 3 stars 4 stars 5 stars
comments

5 Tab

----------------------------------------------------------------------
			     5 - Ultraspank
----------------------------------------------------------------------

tuning: dropped D, down a half step

      h - hammer on 
      p - pull off 
      b - bend string up
      r - release bend
      / - slide up
      \ - slide down
      x - left hand mute
      p.m. - palm mute

intro:
D#|-------------------------------------------------------------------
A#|-------------------------------------------------------------------
F#|-------------------------------------------------------------------
C#|-xxxx----xxxx----x9/-----------------------------------------------
G#|-xxxx----xxxx----x9/-----------------------------------------------
C#|-xxxx----xxxx----x9/-----------------------------------------------


riff 1:
D#|-------------------------------------------------------------------
A#|-------------------------------------------------------------------
F#|-------------------------------------------------------------------
C#|-4p3-3---3-4-3-3--9999------4p3-4p3--999988886-------(3)-----------
G#|-4p3-3-4-3-4-3-3--9999-(3X)-4p3-4p3--999988886-------(3)-----------
C#|-4p3-3-3-3-4-3-3--9999------4p3-4p3--999988886-------(3)-----------
 repeat this whole riff a couple times, then end on this ^
[ Tab from: http://www.guitartabs.cc/tabs/u/ultraspank/5_tab.html ]
riff 2:
D#|-------------------------------------------------------------------
A#|-------------------------------------------------------------------
F#|-------------------------------------------------------------------
C#|-1-1-1h3-----------------------------------------------------------
G#|-1-1-1h3--(4X)-----------------------------------------------------
C#|-1-1-1h3-----------------------------------------------------------
  p.m.-----|      this goes straight into riff 3
riff 3:
D#|-------------------------------------------------------------------
A#|-------------------------------------------------------------------
F#|-------------------------------------------------------------------
C#|-11131-3-344-0-1h3-1h3-1h3-1113-3-4401-----------------------------
G#|-11131-3-344-0-1h3-1h3-1h3-1113-3-4401-(2X)------------------------
C#|-11131-3-344-0-1h3-1h3-1h3-1113-3-4401-----------------------------
   p.m.-----------------------------------|

D#|-------------------------------------------------------------------
A#|-------------------------------------------------------------------
F#|-------------------------------------------------------------------
C#|-11131-3-344-0-1h3-1h3-1h3-1113-3-4401-----------------------------
G#|-11131-3-344-0-1h3-1h3-1h3-1113-3-4401-----------------------------
C#|-11131-3-344-0-1h3-1h3-1h3-1113-3-4401-----------------------------

D#|-------------------------------------------------------------------
A#|-------------------------------------------------------------------
F#|-------------------------------------------------------------------
C#|-11131-3-344-0-1h3-1h3-1h3-1113-3-4--------------------------------
G#|-11131-3-344-0-1h3-1h3-1h3-1113-3-4--------------------------------
C#|-11131-3-344-0-1h3-1h3-1h3-1113-3-4--------------------------------

riff 1
riff 2
riff 3
riff 1

D#|-----------|-------------------------------------------------------
A#|-----------|--66666666-77-33333------------------------------------
F#|-----------|--55555555-66-22222------------------------------------
C#|-3---4---0-|--33333333-44-00000------------------------------------
G#|-3---4---0-|-----(2nd guitar)--------------------------------------
C#|-3---4---0-|-------------------------------------------------------

D#|----------------------------------------------|--------------------
A#|----------------------------------------------|--------------------
F#|----------------------------------------------|--------------------
C#|-3-------4--------00000000---3-------4-------4|--------------------
G#|-3-strum-4-strum--00000000---3-strum-4-strum-4|--------------------
C#|-3-------4--------00000000---3-------4-------4|--------------------
                     p.m.----|

riff 1

D#|-----------|
A#|-----------|
F#|-----------|
C#|-3---4---0-|
G#|-3---4---0-|
C#|-3---4---0-|

 as i always say: this isnt perfect and you need to listen to the song to put
it all together. and, as always, have fun. - j.a.cass
======================================================================
from the self titled cd ultraspank. www.ULTRASPANK.com, www.epiccenter.com,
www.sony.com. copyright 1998 sony music entertainment inc.
Comments