Ultrasound - Stay Chords & Tabs

 

Stay Chords & Tabs

Ultrasound Chords & Tabs

Version: 2 Type: Tab 0 ratings
1 star 2 stars 3 stars 4 stars 5 stars
comments

Stay Tab

This is a tab of a song by the band that I am in. I hope you enjoy it,
I really like playing this song.

Starts out electric guitar, with distortion, regular tuning

e----xx----x/xxx----xx---x/xxx---xx---x/xxx---xx---x/xxx-----|
b----xx----x/xxx----xx---x/xxx---xx---x/xxx---xx---x/xxx-----|
g----77----6/777----xx---6/777---xx---6/777---xx---6/777-----|
d----77----6/777----77---6/777---99---6/777---55---6/777-----|
a----55----4/555----77---4/555---99---4/555---55---4/555-----|
e----xx----x/xxx----55---x/xxx---77---x/xxx---33---x/xxx-----|

Repeat this 4 times for the verse. Then go to chorus, which is this:
[ Tab from: http://www.guitartabs.cc/tabs/u/ultrasound/stay_tab_ver_2.html ]
e---x-x-x-x-x----x-x-x-x-x----x-x-x-x-x----x-x-x-x-x---------|
b---x-x-x-x-x----x-x-x-x-x----x-x-x-x-x----x-x-x-x-x---------|
g---7-7-7-7-7----7-7-7-7-7----7-7-7-7-7----7-7-7-7-7---------|
d---7-7-7-7-7----5-5-5-5-5----7-7-7-7-7----5-5-5-5-5---------|
a---5-5-5-5-5----5-5-5-5-5----5-5-5-5-5----5-5-5-5-5---------|
e---x-x-x-x-x----x-x-x-x-x----x-x-x-x-x----x-x-x-x-x---------|

Repeat this twice, then go back to the verse. The order is like this
verse
chorus
verse 2x
chorus
outro(just some picking of the chords in the verse, not strumming,
      end with the first chord of the verse)

That's it, have fun and we should have a record out pretty soon if
anybody out there wants to hear anything by us just email me at:
byroncreekmore@hotmail.com. Thanks again
Comments