Ultra Spank - Crumble Chords & Tabs

 

Crumble Chords & Tabs

Ultra Spank Chords & Tabs

Version: 1 Type: Bass Tab 0 ratings
1 star 2 stars 3 stars 4 stars 5 stars
comments

Crumble Bass Tab

this is the best song ever and if you say it isn't I will RAPE your momma


here we go 


--23--23--32--32--5446--5446--23--23--32--32
--------------------------------------------
--------------------------------------------
00--00--00--00--00----00----00--00--00--00--


chourus
[ Tab from: http://www.guitartabs.cc/tabs/u/ultra_spank/crumble_btab.html ]
--13--13--31--31--6554--6554--13--13--31--31
--------------------------------------------
00--00--00--00--00----00----00--00--00--00--
00--00--00--00--00----00----00--00--00--00--


main


bitch--3-4-3-5-3-4-3-5-3-4-3-5-3-4-3-5-3-45-
--------------------------------------------
--------------------------------------------
---4---3---5---3----5---3---5----3---5----3-
Comments