Ultimate Fakebook - This Will Be Laughing Week Chords & Tabs

 

This Will Be Laughing Week Chords & Tabs

Ultimate Fakebook Chords & Tabs

Version: 1 Type: Tab 0 ratings
1 star 2 stars 3 stars 4 stars 5 stars
comments

This Will Be Laughing Week Tab

hey, i had been looking for this tab and then asked for it in the forums (great
place, everyone should become a member) someone replied (FatKidsonMopeds) and
gave this too me. i asked if i could post it and i got the big *10-4 good buddy*
this sounds right to me. the chords are played more than the once they are shown
as. yeah, so you should be able to figure out the timing.

[ Tab from: http://www.guitartabs.cc/tabs/u/ultimate_fakebook/this_will_be_laughing_week_tab.html ]
intro
e|------------------------------------------------------------------|
B|-----6-5-3-0---3--6---6-5-3-0------0-6----------------------------|
G|--0------------0-------0-----------0------------------------------|
D|------------------------------------------------------------------|
A|------------------------------------------------------------------|
E|------------------------------------------------------------------|
verse
e|------------------------------------------------------------------|
B|------------------------------------------------------------------|
G|------6-7-----6-7-----5----7--5--7--------------------------------|
D|-5-7--6-7-5-7-6-7--7--5-5--7--5--7--------------------------------|
A|-5-7--4-5-5-7-4-5--7--3-5--5--3--5--------------------------------|
E|-3-5------3-5------5----3-----------------------------------------|
chorus
e|------------------------------------------------------------------|
B|------------------------------------------------------------------|
G|-----5-7----------------------------------------------------------|
D|--5-5--7----------------------------------------------------------|
A|--5-3--5----------------------------------------------------------|
E|--3---------------------------------------------------------------|


questions? comments? spam mail? send it to guitaristwithastockingcap@hotmail.com

\m/ rock on, alex
Comments