Ultima Thule - Svea Saga Chords & Tabs

 

Svea Saga Chords & Tabs

Ultima Thule Chords & Tabs

Version: 1 Type: Tab 0 ratings
1 star 2 stars 3 stars 4 stars 5 stars
comments

Svea Saga Tab

   
                 SVEA SAGA
               ULTIMA THULE


Intro:
--------0-------- 
----------1------ 
------2-----2---- 
----2------------ 
--0-------------- 
----------------- 

-------------
------------- 
-------2----- 
-------2----- 
-5-5-5-0----- 
-3-3-3------- 

Vers A:
-------0------------0--------------------------------
---------1------------1------------------------------
-----2-----2------2-----2------0------------0--------
---2------------2------------2-------0----2-------2--
-0------------0------------3-------2----3-------2----
---------------------------------3------------0------

Vers solo
------------------------------3--5-3-1-0--
-----5--3--1-0--1----------5--------------
-2----------------0----2------------------
------------------------------------------
------------------------------------------
------------------------------------------
[ Tab from: http://www.guitartabs.cc/tabs/u/ultima_thule/svea_saga_tab.html ]
Vers B:
-------------------------------------------------
-------------------------------------------------
-------2-----------2------------------5-----4----
-------2-----------2------3-----2-----5-----4----
-0-0-0-0-0-0-0-0-0-0-0-0--3-----2-----3-3-3-2-2--
--------------------------1-1-1-0-0-0------------

Refräng:
----------------------------------------------------------------------------------
----------------------------------------------------------------------------------
-5-----2-----5-----2-----5-----------5-----------------5-----------5--------------
-5-----2-----5-----2-----5---5---3---5---7---5---3-----5---5---3---5---7---5---3--
-3-----0-----3-----0-----3---5---3---3---7---5---3-----3---5---3---3---7---5---3--
-----------------------------3---1-------5---3---1---------3---1-------5---3---1--


Vers A
Tor... Med åska for han fram  
Oden... Han var känd som visdomsman  
Vers B
De var asar och gudar i vår äldre tid 
Vår tro så var om asken Yggdrasil 

Refräng:
Du  hör Svea saga 
Berättas än en gång 
Om svenska hjältar, frihetsmän  
Om kungar och kämpar  
Många fler än en 

/metal_up_your_ass@2die4.com

 
Comments