Ultima Thule - Samling Vid Pumpen Chords & Tabs

 

Samling Vid Pumpen Chords & Tabs

Ultima Thule Chords & Tabs

Version: 1 Type: Tab 0 ratings
1 star 2 stars 3 stars 4 stars 5 stars
comments

Samling Vid Pumpen Tab

Samling Vid Pumpen
Detta är min första Tab. Maila eller adda på msn och säg vad du tycker...
tjock_smock@hotmail.com

INTRO 
E----------------------------------------------------------
B---------------------------------------------------------- 
G---------------------------------------------------------- 
D---------------------------------------------------------- 
A---5-5-5-5--12-12-12-12--5-5-5-5--7-7-12-12--5-5-5-5------ 
E---3-3-3-3--10-10-10-10--3-3-3-3--5-5-10-10--3-3-3-3------ 
[ Tab from: http://www.guitartabs.cc/tabs/u/ultima_thule/samling_vid_pumpen_tab.html ]
E----------------------------------------------------------
B---------------------------------------------------------- 
G---------------------------------------------------------- 
D---------------------------------------------------------- 
A---12-12-12-12--5-5-5-5--7-7-5-5--10-10-10-10--5-5-5-5---- 
E---10-10-10-10--3-3-3-3--5-5-3-3--8--8--8--8---3-3-3-3---- 

E---------------------------------------------------------- 
B---------------------------------------------------------- 
G---------------------------------------------------------- 
D---------------------------------------------------------- 
A---12-12-12-12--5-5-5-5--10-10-10-10--5-5-5-5--12-12-12-12
E---10-10-10-10--3-3-3-3--8--8--8--8---3-3-3-3--10-10-10-10

E---------------------------------------------------------- 
B---------------------------------------------------------- 
G---------------------------------------------------------- 
D---------------------------------------------------------- 
A---5-5-5--------------------------------------------------
E---3-3-3--------------------------------------------------

Av Robin Sjölund
Comments