Ultima Thule - Nu Gr Nskar Det Chords & Tabs

 

Nu Gr Nskar Det Chords & Tabs

Ultima Thule Chords & Tabs

Version: 1 Type: Tab 0 ratings
1 star 2 stars 3 stars 4 stars 5 stars
comments

Nu Gr Nskar Det Tab

   
---------------------------------
ULTIMA THULE - NU GRÖNSKAR DET
Tabbad av: Tobbe  
---------------------------------

Intro:
                                                    x2
e|---------------------------------------------------|
B|---------------------------------------------------|
G|------4--4--4--5-4------------4-5--4---4-----------|
D|--5-7--------------7--7--7--7--------7----7--5--5--|
A|---------------------------------------------------|
E|---------------------------------------------------|

Mellanspel
                                                    x2
e|----5-7--7--7--8-7-5--5--5--5-7-8--7-5-7--5--------|
B|--8------------------------------------------8--8--|
G|---------------------------------------------------|
D|---------------------------------------------------|
A|---------------------------------------------------|
E|---------------------------------------------------|

Mellanspel 2
                                                                       x2
e|--------12--12--12--13-12----------------12-13--12----12--------------|
B|--13-15-------------------15--15--15--15-----------15-----15--13--13--|
G|----------------------------------------------------------------------|
D|----------------------------------------------------------------------|
A|----------------------------------------------------------------------|
E|----------------------------------------------------------------------|
[ Tab from: http://www.guitartabs.cc/tabs/u/ultima_thule/nu_gr_nskar_det_tab.html ]
Outro
                                                     x2
e|----------------------------------------------------|
B|-------5--5--5--6-5------------5-6--5---5-----------|
G|--5-7---------------7--7--7--7--------7----7--5--5--|
D|----------------------------------------------------|
A|----------------------------------------------------|
E|----------------------------------------------------|


   G5             D5
Nu grönskar det i dalens famn
   C5	  D5      G5
Nu doftar äng och lid
		    D5
Kom med, kom med på vandrings färd
  C5     D5    G5
i vårens glada tid

    G5            D5
Var dag är som en gyllene skål
     C5                D5
till brädden fylld med vin
   G5                   D5
så drick min vän, drick sol och doft
   C5    D5     G5
ty dagen den är din


Långt bort från stadens gråa hus
vi glatt vår kosa styr
Och följer vägens vita band
mot ljusa äventyr
Med öppna ögon låt oss se
på livets rikedom
Som gror och sjuder överallt
där våren går i blom

Mellanspel

(Låten höjs till C)

Mellanspel 2



   C5             G5*
Nu grönskar det i dalens famn
   F5*    G5*     C5        
Nu doftar äng och lid
                    G5*
Kom med, kom med på vandrings färd
  F5*    G5*   C5
i vårens glada tid
    C5            G5*
Var dag är som en gyllene skål
     F5*               G5*
till brädden fylld med vin
   C5                   G5*
så drick min vän, drick sol och doft
   F5*   G5*    C5
ty dagen den är din

Outro


* = Spelas en oktav upp

-------------------------------------------
Kommentarer och förbättringar skickas till
          
-------------------------------------------

Comments