Ultima Thule - Fur Fuderneslandet Chords & Tabs

 

Fur Fuderneslandet Chords & Tabs

Ultima Thule Chords & Tabs

Version: 1 Type: Bass Tab 0 ratings
1 star 2 stars 3 stars 4 stars 5 stars
comments

Fur Fuderneslandet Bass Tab

Ultima Thule - F?r F?derneslandet

Detta ?r munspelsdelarna till "F?derneslandet" arrangerad till
4-str?ngad bas. Ackorden finns p? WWW.PLAYMO.CJB.NET
J?vligt tack till Torbj?rn Sandvik p? playmono@online.no
f?r superba Ultima Thule Tabs....

Intro
-----------------------9------9--------------|
---------10-9-10--12-----12-----12---9----9--|
-10-12---------------------------------10----|
---------------------------------------------|

-----------------------9----------9-----9-----------|
---------10-9-10--12-----12---12----12----9---9-----|
-10-12-------------------------------------10----10-|
----------------------------------------------------|

[ Tab from: http://www.guitartabs.cc/tabs/u/ultima_thule/fur_fuderneslandet_btab.html ]
Efter f?rsta refr?ngen.
-----------------------9------9-------------|
---------10-9-10--12-----12-----12-----9----|
-10-12--------------------------------------|
--------------------------------------------|

-----------------------9------9--------------|
---------10-9-10--12-----12-----12---9----9--|
-10-12---------------------------------10----|
---------------------------------------------|


Efter andra refr?ngen.
------------------------------12--------12-----9---|
---------10-9-10--12-----------------12----12------|
-10-12---------------------------------------------|
---------------------------------------------------|

----------------------------9-12--------12-----9---|
---------10-9-10--12-----------------12----12------|
-10-12---------------------------------------------|
---------------------------------------------------|


/metal_up_your_ass@2die4.com
Comments