Uk Subs - B1c Chords & Tabs

 

B1c Chords & Tabs

Uk Subs Chords & Tabs

Version: 1 Type: Tab 0 ratings
1 star 2 stars 3 stars 4 stars 5 stars
comments

B1c Tab

Intro:
e|------------------------------------|
B|------------------------------------|
G|---4---------------4----------------|
D|-4-4-4-2--2--2---4-4-4-x-x-x-x-x-x--|x2
A|-4-2-4-2--2--2---4-2-4-x-x-x-x-x-x--|
E|-2---2-0--0--0---2---2-x-x-x-x-x-x--|

Verse:
e|--------------------|
B|--------------------|
G|-4-4-4-4--2-2-------|
D|-4-4-4-4--2-2--2-2--|x4
A|-2-2-2-2--0-0--2-2--|
E|---------------0-0--|

e|--------------------------|
B|--------------------------|
G|-4-x-x-x-x-x-x--2-2-------|
D|-4-x-x-x-x-x-x--2-2--2-2--|x4
A|-2-x-x-x-x-x-x--0-0--2-2--|
E|---------------------0-0--|
[ Tab from: http://www.guitartabs.cc/tabs/u/uk_subs/b1c_tab.html ]
Chorus:
e|-0-----0-----3-----2--|
B|-0-----2-----3-----4--|
G|-1-----2-----4-----4--|
D|-2-----2-----5-----4--|
A|-2-----0-----5-----2--|
E|-0-----------3--------|

Played at the end of the first chorus...
e|---------|
B|---------|
G|-4----4--|
D|-4----4--|
A|-2----2--|
E|---------|

...and this at the end of the last
e|-------------------------------------------------------------|
B|-------------------------------------------------------------|
G|---4---------------4------------------4---------------4---4--|
D|-4-4-4-2--2--2---4-4-4-x-x-x-x-x-x--4-4-4-2--2--2---4-4-4-4--|
A|-4-2-4-2--2--2---4-2-4-x-x-x-x-x-x--4-2-4-2--2--2---4-2-4-2--|
E|-2---2-0--0--0---2---2-x-x-x-x-x-x--2---2-0--0--0---2---2----|

Fill:
e|--------------------|
B|--------------------|
G|-7---7---7---7------|
D|-7-7-7-7-7-7-7-7-9--|
A|-5-7-5-7-5-7-5-7-9--|
E|---5---5---5---5-7--|
Comments