Ugly Kid Joe - Everything About You Chords & Tabs

 

Everything About You Chords & Tabs

Ugly Kid Joe Chords & Tabs

Version: 2 Type: Bass Tab 0 ratings
1 star 2 stars 3 stars 4 stars 5 stars
comments

Everything About You Bass Tab

   
-------------------------------------------------------------------------------
	               Everything About You - Ugly Kid Joe
-------------------------------------------------------------------------------

Tabbed By : caesten
e-mail: caesten@ofir.dk

Tuning:e,a,d,g

its actually pretty simple and it is correct.


intro/verse/chorus
G|---------------------------------------------------------------------------|
D|---------------------------------------------------------------------------|
A|-4-4-4--------------------4-4-4--------------------------------------------|
E|-------6-2-4-4-4-4-4-6-4--------6-2-4-4-4-4-4-6-4--------------------------|

pre-chorus
G|---------------------------------------------------------------------------|
D|---------------------------------------------------------------------------|
A|---------------------------------------------------------------------------|
E|-2-4-----------------------------------------------------------------------|
[ Tab from: http://www.guitartabs.cc/tabs/u/ugly_kid_joe/everything_about_you_btab_ver_2.html ]
second pre-chorus
G|---------------------------------------------------------------------------|
D|---------------------------------------------------------------------------|
A|---------------------------------------------------------------------------|
E|-2-2--4-4--2-2--4-4--2-2--4-4----------------------------------------------|

the fast piece
G|---------------------------------------------------------------------------|
D|---------------------------------------------------------------------------|
A|-4-44------------1-2-3-4-44------------------------------------------------|
E|------1-2-3-4-44-----------------------------------------------------------|

after he says "You, ha,ha"
G|---------------------------------------------------------------------------|
D|-----4-4-5-5-6-6-7--(7777777)----------------------------------------------|
A|-5-5-----------------------------------------------------------------------|
E|---------------------------------------------------------------------------|

the last cartoon style
G|---------------------------------------------------------------------------|
D|---------------------------------------------------------------------------|
A|-5----------3-4------------------------------------------------------------|
E|---4-4-6-4-----------------------------------------------------------------|



thats it folks, its 100 percent correct:) any comments please e-mail me:)
Comments