Ugly Kid Joe - Cats In The Cradle Chords & Tabs

 

Cats In The Cradle Chords & Tabs

Ugly Kid Joe Chords & Tabs

Version: 1 Type: Bass Tab 0 ratings
1 star 2 stars 3 stars 4 stars 5 stars
comments

Cats In The Cradle Bass Tab

This is muh first tab but i thinks its pretty much rite if not er u got any
questions then gimmie a e-mail at devon_steele@hotmail.com


intro
g-------------------------------------------------------------------------
d-----------------------------------5-------------------------------------
a---5h-7--5h-7-----75---------------5---7---------------------------------
e-0-----------0-------76530-----------------------------------------------
no bass in first verse

pre chours
g-------------------------------------------------------------------------
d-------------------------------------------------------------------------
a-54-20-------------------------------------------------------------------
e-------3-2-0---3-2-0-----------------------------------------------------
[ Tab from: http://www.guitartabs.cc/tabs/u/ugly_kid_joe/cats_in_the_cradle_btab.html ]
chours
g-------------------------------------------------------------------------
d-------------------------------------------------------------------------
a-----------5-5-5-5-5-------------------------------5-5-5-5-5-------------
e-0-0-0-0-0-----------3-3-3-3-3-5-5-5-5-5-0-0-0-0-0-----------3-2-0--3-2-0

verse2
g-------------------------------------------------------------------------
d-------------------------------------------------------------------------
a-------------------------------------------------------------------------
e-0-0-3-3-5-5-0-----------------------------------------------------------

end
g-------------------------------------------------------------------------
d-------------------------------------------------------------------------
a--5-7----5-7-------------------------------------------------------------
e-0-----0-----------------------------------------------------------------
Comments