Uggla Magnus - Nitar Och L?der Chords & Tabs

 

Nitar Och L?der Chords & Tabs

Uggla Magnus Chords & Tabs

Version: 1 Type: Tab 1 rating
1 star 2 stars 3 stars 4 stars 5 stars
comments

Nitar Och L?der Tab

   
Guitar 1
e|-----------------------------------------------------------------------|
H|-----------------------------------------------------------------------|
G|-----------------------------------------------------------------------|
D|12-x-x-12-12-x-x-12-x-12-x-12-12-x-x-x-7-x-x-7-7-x-x-7-x-7-x-7-7-x-x-x-|
A|12-x-x-12-12-x-x-12-x-12-x-12-12-x-x-x-7-x-x-7-7-x-x-7-x-7-x-7-7-x-x-x-|
E|10-x-x-10-10-x-x-10-x-10-x-10-10-x-x-x-5-x-x-5-5-x-x-5-x-5-x-5-5-x-x-x-|

e|-------------------------------------------------------------------|
H|-------------------------------------------------------------------|
G|-------------------------------------------------------------------|
D|12-x-x-12-12-x-x-9-x-9-x-9-9-x-x-x-5-x-x-5-5-x-x-7-x-7-x-7-7-x-x-x-|
A|12-x-x-12-12-x-x-9-x-9-x-9-9-x-x-x-5-x-x-5-5-x-x-7-x-7-x-7-7-x-x-x-|
E|10-x-x-10-10-x-x-7-x-7-x-7-7-x-x-x-3-x-x-3-3-x-x-5-x-5-x-5-5-x-x-x-|

e|----------------------------------------------------------------------------|
H|----------------------------------------------------------------------------|
G|----------------------------------------------------------------------------|
D|12-12-12-12-12-12-12-12-7-7-7-7-7-7-7-7-12-12-12-12-9-9-9-9-5-5-5-5-7-7-7-7-|
A|12-12-12-12-12-12-12-12-7-7-7-7-7-7-7-7-12-12-12-12-9-9-9-9-5-5-5-5-7-7-7-7-|
E|10-10-10-10-10-10-10-10-5-5-5-5-5-5-5-5-10-10-10-10-7-7-7-7-3-3-3-3-5-5-5-5-|

e|10-----------------------------------------| x=2
H|---10-12-----------------------------------|
G|-------------------------------------------|
D|---------12-14-11-12-----------------------|
A|-------------------------------------------|
E|-------------------------------------------|

Guitar 1
e|-------------------------------------------------------------------------|
H|-------------------------------------------------------------------------|
G|-------------------------------------------------------------------------|
D|5-------7-------5-------7-------5-------7-------5-------7777777777777777-|
A|5-------7-------5-------7-------5-------7-------5-------7777777777777777-|
E|3-------5-------3-------5-------3-------5-------3-------5555555555555555-|

Guitar 2
e|--------------------------------------------------------------------------------|
H|--------------------------------------------------------------------------------|
G|------------------------------------------------------------------11-12-11------|
D|--------------------------------------------------------------------------12-12-|
A|--------------------------------------------------------------------------------|
E|--------------------------------------------------------------------------------|

Guitar 1
e|----------------------------------------------------------------------------|
H|----------------------------------------------------------------------------|
G|----------------------------------------------------------------------------|
D|12-12-12-12-12-12-12-12-5-5-5-5-5-5-5-5-12-12-12-12-9-9-9-9-7-7-7-7-7-7-7-7-|
A|12-12-12-12-12-12-12-12-5-5-5-5-5-5-5-5-12-12-12-12-9-9-9-9-7-7-7-7-7-7-7-7-|
E|10-10-10-10-10-10-10-10-3-3-3-3-3-3-3-3-10-10-10-10-7-7-7-7-5-5-5-5-5-5-5-5-|

Guitar 2
e|------------------------------------------------------------------------------------|
H|------------------------------------------------------------------------------------|
G|----------------------------------------------------------------------11-12-11------|
D|------------------------------------------------------------------------------12-12-|
A|------------------------------------------------------------------------------------|
E|------------------------------------------------------------------------------------|

Guitar 1
e|----------------------------------------------------------------------------|
H|----------------------------------------------------------------------------|
G|----------------------------------------------------------------------------|
D|12-12-12-12-12-12-12-12-5-5-5-5-5-5-5-5-12-12-12-12-9-9-9-9-7-7-7-7-7-7-7-7-|
A|12-12-12-12-12-12-12-12-5-5-5-5-5-5-5-5-12-12-12-12-9-9-9-9-7-7-7-7-7-7-7-7-|
E|10-10-10-10-10-10-10-10-3-3-3-3-3-3-3-3-10-10-10-10-7-7-7-7-5-5-5-5-5-5-5-5-|

e|----------------------------------------|
H|----------------------------------------|
G|----------------------------------------|
D|12-12-12-12-12-12-12-12-7-7-7-7-7-7-7-7-|
A|12-12-12-12-12-12-12-12-7-7-7-7-7-7-7-7-|
E|10-10-10-10-10-10-10-10-5-5-5-5-5-5-5-5-|

Guitar 1
e|10-----------------------------------------| x=2
H|---10-12-----------------------------------|
G|-------------------------------------------|
D|---------12-14-11-12-----------------------|
A|-------------------------------------------|
E|-------------------------------------------|
[ Tab from: http://www.guitartabs.cc/tabs/u/uggla_magnus/nitar_och_lder_tab.html ]
Guitar 2
e|-----------------------------------------------------------------------| x=2
H|-----------------------------------------------------------------------|
G|-----------------------------------------------------------------------|
D|12-x-x-12-12-x-x-12-x-12-x-12-12-x-x-x-5-x-x-5-5-x-x-7-x-7-x-7-7-x-x-x-|
A|12-x-x-12-12-x-x-12-x-12-x-12-12-x-x-x-5-x-x-5-5-x-x-7-x-7-x-7-7-x-x-x-|
E|10-x-x-10-10-x-x-10-x-10-x-10-10-x-x-x-3-x-x-3-3-x-x-5-x-5-x-5-5-x-x-x-|

Guitar 1
e|-------------------------------------------------------------------------|
H|-------------------------------------------------------------------------|
G|-------------------------------------------------------------------------|
D|5-------7-------5-------7-------5-------7-------5-------7777777777777777-|
A|5-------7-------5-------7-------5-------7-------5-------7777777777777777-|
E|3-------5-------3-------5-------3-------5-------3-------5555555555555555-|

Guitar 1
e|----------------------------------------------------------------------------|
H|----------------------------------------------------------------------------|
G|----------------------------------------------------------------------------|
D|12-12-12-12-12-12-12-12-5-5-5-5-5-5-5-5-12-12-12-12-9-9-9-9-7-7-7-7-7-7-7-7-|
A|12-12-12-12-12-12-12-12-5-5-5-5-5-5-5-5-12-12-12-12-9-9-9-9-7-7-7-7-7-7-7-7-|
E|10-10-10-10-10-10-10-10-3-3-3-3-3-3-3-3-10-10-10-10-7-7-7-7-5-5-5-5-5-5-5-5-|

Guitar 2
e|------------------------------------------------------------------------------------|
H|------------------------------------------------------------------------------------|
G|----------------------------------------------------------------------11-12-11------|
D|------------------------------------------------------------------------------12-12-|
A|------------------------------------------------------------------------------------|
E|------------------------------------------------------------------------------------|

Guitar 1
e|----------------------------------------------------------------------------|
H|----------------------------------------------------------------------------|
G|----------------------------------------------------------------------------|
D|12-12-12-12-12-12-12-12-5-5-5-5-5-5-5-5-12-12-12-12-9-9-9-9-7-7-7-7-7-7-7-7-|
A|12-12-12-12-12-12-12-12-5-5-5-5-5-5-5-5-12-12-12-12-9-9-9-9-7-7-7-7-7-7-7-7-|
E|10-10-10-10-10-10-10-10-3-3-3-3-3-3-3-3-10-10-10-10-7-7-7-7-5-5-5-5-5-5-5-5-|

e|------------------------|
H|------------------------|
G|------------------------|
D|12-12-12-12-12-12-12-12-|
A|12-12-12-12-12-12-12-12-|
E|10-10-10-10-10-10-10-10-|

e|----------------------------------------------------------------------------|
H|----------------------------------------------------------------------------|
G|----------------------------------------------------------------------------|
D|11-11-11-11-9-9-9-9-7-7-7-7-11-11-11-11-12-12-12-12-9-9-9-9-5-5-5-5-7-7-7-7-|
A|11-11-11-11-9-9-9-9-7-7-7-7-11-11-11-11-12-12-12-12-9-9-9-9-5-5-5-5-7-7-7-7-|
E|9--9--9--9--7-7-7-7-5-5-5-5-9--9--9--9--10-10-10-10-7-7-7-7-3-3-3-3-5-5-5-5-|

e|------------------------|
H|------------------------|
G|------------------------|
D|7-7-7-7-7-7-7-7-7-7-7-7-|
A|7-7-7-7-7-7-7-7-7-7-7-7-|
E|5-5-5-5-5-5-5-5-5-5-5-5-|

e|-----------------------------------------------------------------------|
H|-----------------------------------------------------------------------|
G|-----------------------------------------------------------------------|
D|12-x-12-x-12-x-x-12-x-12-x-12-12-x-x-x-5-x-5-x-5-x-x-5-x-5-x-5-5-------|
A|12-x-12-x-12-x-x-12-x-12-x-12-12-x-x-x-5-x-5-x-5-x-x-5-x-5-x-5-5-------|
E|10-x-10-x-10-x-x-10-x-10-x-10-10-x-x-x-3-x-3-x-3-x-x-3-x-3-x-3-3-------|

Guitar 1
e|------------------------------------|
H|------------------------------------|
G|------------------------------------|
D|12-12-12-12-9-9-9-9-7-7-7-7-7-7-7-7-|
A|12-12-12-12-9-9-9-9-7-7-7-7-7-7-7-7-|
E|10-10-10-10-7-7-7-7-5-5-5-5-5-5-5-5-|

Guitar 2
e|-------------------------------------------|
H|-------------------------------------------|
G|-----------------------------11-12-11------|
D|-------------------------------------12-12-|
A|-------------------------------------------|
E|-------------------------------------------|

Guitar 1
e|----------------------------------------------------------------------------| x=2
H|----------------------------------------------------------------------------|
G|----------------------------------------------------------------------------|
D|12-12-12-12-12-12-12-12-5-5-5-5-5-5-5-5-12-12-12-12-9-9-9-9-7-7-7-7-7-7-7-7-|
A|12-12-12-12-12-12-12-12-5-5-5-5-5-5-5-5-12-12-12-12-9-9-9-9-7-7-7-7-7-7-7-7-|
E|10-10-10-10-10-10-10-10-3-3-3-3-3-3-3-3-10-10-10-10-7-7-7-7-5-5-5-5-5-5-5-5-|

e|----------------------------------------------------------------------------|x=2
H|----------------------------------------------------------------------------|
G|----------------------------------------------------------------------------|
D|12-12-12-12-12-12-12-12-7-7-7-7-7-7-7-7-12-12-12-12-9-9-9-9-5-5-5-5-7-7-7-7-|
A|12-12-12-12-12-12-12-12-7-7-7-7-7-7-7-7-12-12-12-12-9-9-9-9-5-5-5-5-7-7-7-7-|
E|10-10-10-10-10-10-10-10-5-5-5-5-5-5-5-5-10-10-10-10-7-7-7-7-3-3-3-3-5-5-5-5-|

e|---|
H|---|
G|---|
D|12-|
A|12-|
E|10-|

I think that's correct.

Good Luck!
Comments