Ufo - Too Hot To Handle Chords & Tabs

 

Too Hot To Handle Chords & Tabs

Ufo Chords & Tabs

Version: 2 Type: Tab

Too Hot To Handle Tab

Too Hot To Handle Intro by UFO


[ Tab from: http://www.guitartabs.cc/tabs/u/ufo/too_hot_to_handle_tab_ver_2.html ]
    Guitar I
e|----------------------------------------------------------------|
B|----------------------------------------------------------------|
G|-4--4------------------------------4--4-------------------------|
D|-2--2-------------2--2-------------2--2-------------2~----------|
A|------------------0--0------------------------------------------|
E|------------------------------------------2-2h3p2---------------|
 |                                                                |
 |  Guitar II                                                     |
e|--------2-2h3p2--------------------------------------------3--3-|
B|-------------------------2-2h3p2--------------------------------|
G|-4--4------------------------------4--4-------------4--4--------|
D|-2--2-------------2--2-------------2--2-------------2--2--------|
A|------------------0--0------------------------------------------|
E|------------------------------------------2-2h3p2---------------|