Ufo - Love To Love Chords & Tabs

 

Love To Love Chords & Tabs

Ufo Chords & Tabs

Version: 1 Type: Tab 0 ratings
1 star 2 stars 3 stars 4 stars 5 stars
comments

Love To Love Tab

   
"LOVE TO LOVE" BY UFO (composed by Schenker & Mogg)
From the Album "LIGHTS OUT"


E-mail your comment or criticisms to john-campbell@talk21.com


   
   	(lots of gongs and stuff)
	(then a haunting sort of keyboard riff that I can not work out)


   Bass Line:
G|-------------------------------------------------------------------|
D|-------------------------------------------------------------------|
A|----5-7-------5--7-------------------------------------------------|
E|-----------7-----------0-------0-----------0----------0------------|



   E|------------------|
   B|------------------|
   G|-----9------------|
   D|-----9------------|           x 4
   A|-----7------------|
   E|-----0------------|
   
   

   E|------------------------------------------------------|
   B|------------------------------------------------------|
   G|-----9--9--9--9--------9--9--------9--9--------9--9---|
   D|-----9--9--9--9--------9--9--------9--9--------9--9---|    x 4
   A|-----7--7--7--7--------7--7--------7--7--------9--9---|
   E|-----0--0--0--0--0--0--0--0--0--0--0--0--0--0--7--7-0-|
   
   
   E|------------------------------------------------|
   B|------------------------------------------------|
   G|------------------------------------------------|
   D|------9--7s-9--11-7--14--11s-12--12--11-7s--9---|     X 4
   A|------7--5s-7--9--5--12--9s--10--10--9--5s--7---|
   E|------------------------------------------------|


   E|----------------------------------------------------------------------------|
   B|----------------------------------------------------------------------------|
   G|----------------------------------------------------------------------------|
   D|----------------------------------------------------------------------------|   
   A|--3----3-2s--7-------3----h5p3-3s2--------3----3-2s--7---------3----3-2-----|
   E|-----------------------------------0-------------------------------------0--|
   
chords:

Em	Em	C  D   
Em	Em	C  D
[ Tab from: http://www.guitartabs.cc/tabs/u/ufo/love_to_love_tab.html ]
G             D                   C         Em		
Oh it's been too many times and I can't go back
G             D                   C           C D
Night bars, guitars, rundown motels like shacks
G             D                   C         Em
What it mounts up to I don't want it at all
G             D              C    C D
Lost you and I want you today

G       D         C    Em
* Misty green and blue
G       D            C     C D 
Love to love to love you
G       D       C   Em 
Misty green and blue
G       D            Em
Love to love to love you

C	D	G

C     D              G   
To be something, 
C     D              G
to be with you
      D                C    Em
Don't say that you'll never know
G       D              
Love to love to love you

Em      D        C        C

Em      D        C        C


C      D         Em       Em

C      D         Em

   

(Spine tingling solo bit)
   E|----------------------------------------------------------------|
   B|--8-8-7---------------------8--10--8-7--------------------------|
   G|--------7-----------------------------7-------------------------|
   D|----------7-7--7---7-h9----------------7--7--9--7---------------|   
   A|----------------10--------------------------------10-9-10--7----|
   E|----------------------------------------------------------------|


   E|------------------------------------------------------|
   B|--8-8-7---------------------8--10--8-7----------------|
   G|--------7-----------------------------7---------------|
   D|----------7-7--7---7-h9----------------7--9-----------|   
   A|----------------10---------------------------7--------|
   E|------------------------------------------------------|


(Much of the tune is then repeated with the odd difference here and there 
that I am sure you will be able to work out.  Sorry I cant do the widdly solo bit.  
I'm no where near good enough.  That is why I admire Schenker so much.  He may be 
a bit odd but he is the best rock guitarist of present times.  The rest of the 
lyrics are below.  Good luck.  I hope I have got this right.  If not please let 
me know or add to this as you feel necessary.)





Verse 2
Half the time it could seem funny
The other half is just too sad
This west bound moon's they rise and fall
Lost you and I want you today


To be something, to be near you
I don't know where I'm goin' to
I've tried and I need you to stay
Comments