Ufo - Doctor Doctor Chords & Tabs

 

Doctor Doctor Chords & Tabs

Ufo Chords & Tabs

Version: 3 Type: Bass Tab 0 ratings
1 star 2 stars 3 stars 4 stars 5 stars
comments

Doctor Doctor Bass Tab

c_rejects@hotmail.com 
Tabbed By: me


Band:            	 UFO
Album:                   The Best Of UFO
Songtitle:               Doctor Doctor
Year:                    1979    
Tuning:          	 Standard
Tempo:                   120 bpm approx



Hello hello..

It's amazing that the worldwide-well-known Ultimate-Guitar site has no tab
for this great song.. Well, at least someone tabbed it;-)

Listen to the song for right timing and though..
 
Intro: Just chill and wait for the guitar solo to fade in..
G|---------|--------|---------|-------|-----------|--------|------|
D|---------|-7------|-5-------|-------|-----7-----|-5------|------|
A|---0--5--|---7----|---5--0--|-0---5-|--0----7---|---5--0-|-0--5-|
E|---------|-----6--|---------|-------|---------6-|--------|------|

G|-------|--------|------|----------|-----------|------|
D|-7-----|-5------|------|----7-----|---5--3----|------|
A|---7---|---8--0-|-0--5-|-0----7---|---------0-|-0--5-|
E|-----6-|--------|------|--------6-|-6---------|------|

0:27
G|----------------|--------|-----------|
D|----------------|--------|-----------|
A|-5-------3------|-5------|-----------|
E|-----6--------5-|-----6--|-5---3---5-|


Main Riff:
G|----------------------------------|
D|----------------------------------|
A|--5555555----------------3333333--| x2
E|----------6666666-1111111---------|

[ Tab from: http://www.guitartabs.cc/tabs/u/ufo/doctor_doctor_btab_ver_3.html ]
1st. Verse: Play The Main Riff
G|----------------------------------|    |----------------|
D|----------------------------------|    |----------------|
A|--5555555----------------3333333--| x4 |----------------|
E|----------6666666-1111111---------|    |-3-33--3-33-----|
(Doctor Doctor please..)		   (end of verse)


Chorus: 
G|------------------------|---------|-----------------------|------------|
D|------------------------|---------|-----------------------|------------|
A|--55-----33-------------|-5555555-|--55-----33------------|-555555555--|
E|-----66-----11---33--55-|---------|-----66-----11--33--55-|------------|
(Livin' Lovin'..)

Main Riff:
G|----------------------------------|    |-------------|
D|----------------------------------|    |-------------|
A|--5555555----------------3333333--| x2 |-------------|
E|----------6666666-1111111---------|    |--333--555---|

2nd. Verse:
G|----------------------------------|    |----------------------------22222-|
D|----------------------------------|    |----------------------------------|
A|--5555555----------------3333333--| x3 |--555555---------------00000------|
E|----------6666666-1111111---------|    |---------666666-1111111-----------|
(Doctor Doctor please..)		   

Chorus: 
G|-----------------------|--------|
D|-----------------------|--------|
A|--55-----33------------|-555555-| x2
E|-----66-----11--33--55-|--------| 

-Main Riff-

-3rd. Verse- Just like 1st. Verse-

---After this, keep fading out with the Main Riff..---


Good luck;-)



===============================================================================
Comments