Ufo - Crystal Light Chords & Tabs

 

Crystal Light Chords & Tabs

Ufo Chords & Tabs

Version: 1 Type: Tab 0 ratings
1 star 2 stars 3 stars 4 stars 5 stars
comments

Crystal Light Tab

   
Crystal Light Solo
 by UFO
From the album Obsession

Transcribed by Rob Watson robert.watson14@btinternet.com


Em                                      D        

E|--------------------------|----12------|---14-15-14---15| 
B|(15pb17)r16b17-r16-b17-r16|b17----15b17|15--------------| 
G|--------------------------|------------|----------------| 
D|--------------------------|------------|----------------| 
A|--------------------------|------------|----------------| 
E|--------------------------|------------|----------------| 

                                       C                    

E|17-(17pb19)r18-(17pb19)-r18-(17pb19)|r17-15-14-----|-----------------|
B|------------------------------------|---------15b17|r15--------------|
G|------------------------------------|--------------|----14-12------11|
D|------------------------------------|--------------|-----------------|
A|------------------------------------|--------------|-----------------|
E|------------------------------------|--------------|-----------------|

  D                                             Em                   
[ Tab from: http://www.guitartabs.cc/tabs/u/ufo/crystal_light_tab.html ]
E|-------------------|-----------------------10|15-14----12---|
B|-------------------|--------------------10---|------15------|
G|---12-12b14r12b14--|12b14-12-11-9-11-12------|--------------|
D|14-----------------|-------------------------|--------------|
A|-------------------|-------------------------|--------------|
E|-------------------|-------------------------|--------------|

                      D                                                         

E|-------------------|--------------|12b14-12-12b14r12---|
B|-------------------|--------------|------------------10|
G|---12-14b16r14-12--|14b16-14-12-11|--------------------|
D|14-----------------|--------------|--------------------|
A|-------------------|--------------|--------------------|
E|-------------------|--------------|--------------------|

  C                                D        

E|---------------|----------------|----------|------------------|
B|---------------|--------10------|----------|------------------|
G|12-11-9-9tr----|9-11b12----12-11|9-7-------|-----------7------|
D|---------------|----------------|----9-8-7-|-------7-9---9-8-7|
A|---------------|----------------|----------|6-7-10------------|
E|---------------|----------------|----------|------------------|

  Em                                                         

E|--------------------|
B|--------------------|
G|--------------------|
D|--------------------|
A|10-7---------7------|
E|-----10-7-10--------|
Comments