U2 - With Or Without You Chords & Tabs

 

With Or Without You Chords & Tabs

U2 Chords & Tabs

Version: 1 Type: Bass Tab 0 ratings
1 star 2 stars 3 stars 4 stars 5 stars
comments

With Or Without You Bass Tab

This is how Adam Clayton plays this great song

G:----------------------------------------------------------------
D:----------------------------------------------------------------
A:------------------------------------2-2-2-2-2-2-2---------------
E:-10-10-10-10-10-10-10/5-5-5-5-5-5-5---------------3-3-3-3-3-3-3-
[ Tab from: http://www.guitartabs.cc/tabs/u/u2/with_or_without_you_btab.html ]
The above piece is the main thing Adam plays but near the end he plays
this

G:-----------------------------------------------
D:---0-0-0-0-0-0-0-0-0-0-0-0-0-0-0---------------
A:-2--------------------------------5-5-5-5-5-5-5
E:-----------------------------------------------
                                                                   
I'm not exactly sure of the bit above

Alan
Comments