U2 - Walk On Chords & Tabs

 

Walk On Chords & Tabs

U2 Chords & Tabs

Version: 5 Type: Tab 0 ratings
1 star 2 stars 3 stars 4 stars 5 stars
comments

Walk On Tab

   
    Play the following chords during the soft part at the beggining
 
   Dm-C-G
          

     Intro and Chorus


E---------------12--------------12--------------
B12-12-12-----10--10---------10----10-----------
G-----------11------11-----11---------11--------
D---------0-------------------------------------
A-----------------------0-----------------------
E-----------------------------------------------

E----------12-----------------12-------------
B-------10----10-----------10----10----------
G----11----------11-----11----------11-------
D-10-----------------------------------------
A--------------------------------------------
E---------------------0----------------------


     Verse

D            A              G         E
And if the darkness is to keep us apart
D            A                  G               E
And if the daylight feels like it's a long way off
D        A                      G      
And if your glass heart should crack
             E               D
And for a second you turn back
    A         E
Oh no, be strong

    Chorus

    2nd Verse(Same as first)
      
You're packing a suitcase for a place
None of us has been
A place that has to be believed
To be seen
You could have flown away
A singing bird
In an open cage
Who will only fly
Only fly for freedom

    Chorus

    Interlude
	
         D			
And I know it aches
        A
How your heart it breaks
        E
You can only take so much
 
    Solo
[ Tab from: http://www.guitartabs.cc/tabs/u/u2/walk_on_tab_ver_5.html ]
E-------------------------------------------------------------
B-------------12-15-14-12-12h14-12----------------------------
G-11-12-14-14----------------------14-12-11-9-9h11-11-12-12---
D-------------------------------------------------------------
A-------------------------------------------------------------
E-------------------------------------------------------------

E-------------------------------------------------------------
B-------15-14----------14-15-14-12----14-15-14-12-14--14-15---
G-14-14-------14-11-14-------------14-------------------------
D-------------------------------------------------------------
A-------------------------------------------------------------
E-------------------------------------------------------------

E-----------------------------------------------
B-14-12-----------------------------------------
G------14-14--9h11-9-11-9-----------------------
D-----------------------------------------------
A-----------------------------------------------
E-----------------------------------------------





     Bridge
 D      A
Home
          G    
Hard to know what it is
        E
If you never had one

 D      A
Home
          G
I can't say where it is
        E
But I know I'm going

 D   A
Home
                  E
That's where the hurt is



And I know it aches
And your heart it breaks     Same interlude
You can only take so much
         G  D A
Walk on

  Outro

E--------------------------------------------
B--------------------------------------------
G-9-11-7------9-11-7------9-11-7-7-7-6-------
D-------(9h12)------(9h12)--------------9-7--
A--------------------------------------------
E--------------------------------------------

       I'm not a 100 % sure that the solo is right
Comments