U2 - Walk On Chords & Tabs

 

Walk On Chords & Tabs

U2 Chords & Tabs

Version: 1 Type: Tab 0 ratings
1 star 2 stars 3 stars 4 stars 5 stars
comments

Walk On Tab

   
Song: Walk On
Artist: U2
Transcribed By: Chris Bromley aka Crash & Burn

First off, I'd like to say this song rock and I spent some time on this
perfecting it so it is extremely close if not perfect. Enjoy!

Opening is played with a piano
Then this is the main riff

E---------12----
B-10----------10
G-----11--------
D---------------
A---------------
E---------------

Then right before hes about to start singing, he plays this 
alternative:

E---------12----
B-12----------12
G-----11--------
D---------------
A---------------
E---------------

Throughout the verses theres virtually no guitar except for once in 
awhile he plays this:

E------
B------
G------
D-5h7-7
A------
E------
[ Tab from: http://www.guitartabs.cc/tabs/u/u2/walk_on_tab.html ]
Then the chorus is the main riff followed with the alternative. Listen
to it to figure out when he plays it if you don't already know. It's
really obvious to hear.

The solo is not yet tabbed out but really close. But for now, this is
what's played at the end:

E---------------------
B---------------------
G-9-9-9-11-7-7-7-*7-7*
D---------------------
A---------------------
E---------------------

*??* = played quickly

Then the 3rd time he plays it like this:

E-----------------------------------
B-----------------------------------
G-9-9-9-11-7-7-7-*7-7*-6-6-6--------
D----------------------------9-9-9-7
A-----------------------------------
E-----------------------------------

Thats it except for the solo but that will come soon. Any comments are
appreciated. stone_cold719@hotmail.com
Comments