U2 - Walk On Chords & Tabs

 

Walk On Chords & Tabs

U2 Chords & Tabs

Version: 1 Type: Bass Tab 0 ratings
1 star 2 stars 3 stars 4 stars 5 stars
comments

Walk On Bass Tab

Walk On by U2
Standard Tuning

(Intro)-faint
G:----------|----------|----------|----------|
D:----------|----------|----------|----------|  x2
A:---5--5---|---3--3---|----------|----------|
E:----------|----------|---3--3---|----------|

(Verse I)
G:----------|----------|----------|----------|
D:----------|----------|----------|----------|  x6
A:---5--5---|---0--0---|----------|----------|
E:----------|----------|---3--3---|---0--0---|

(Chorus) Walk on. . . walk on. . . 
G:----------|----------|----------|----------|
D:----------|----------|----------|----------|  x2
A:---5--5---|---0--0---|----------|----------|
E:----------|----------|---3--3---|---0--0---|

(Verse II)
G:----------|----------|----------|----------|
D:----------|----------|----------|----------|  x4
A:---5--5---|---0--0---|----------|----------|
E:----------|----------|---3--3---|---0--0---|

Chorus x2
[ Tab from: http://www.guitartabs.cc/tabs/u/u2/walk_on_btab.html ]
And I know...
G:----------|----------|----------|-22222222-|
D:----------|----------|----------|----------|  x4
A:---5--5---|---0--0---|----------|----------|
E:----------|----------|---3--3---|----------|

Ooooh...
G:----------|----------|----------|---2--2---|
D:----------|----------|----------|----------|
A:---2--2---|----------|----------|----------|
E:----------|---3--3---|---0--0---|----------|


G:----------|----------|----------|----------|
D:----------|----------|----------|----------|
A:---2--2---|----------|----------|---0--0---|
E:----------|---3--3---|---0--0---|----------|

G:----------|----------|----------|----------|
D:----------|----------|----------|----------|
A:---0--0---|---0--0---|0--0--0--0|0--0--0--0|
E:----------|----------|----------|----------|

G:----------|----------|----------|-22222222-|
D:----------|----------|----------|----------|  x4
A:---5--5---|---0--0---|----------|----------|
E:----------|----------|----------|----------|

G:----------|----------|----------|----------|
D:----------|---5--5---|----------|----------|  x6 (The song then
A:---7--7---|----------|---5--5---|----------|        fades out)
E:----------|----------|----------|---5--5---|

Thanks, please rate it after you learn it.
Tabbed by:
_TheBassist01_
Comments