U2 - Vertigo Chords & Tabs

 

Vertigo Chords & Tabs

U2 Chords & Tabs

Version: 4 Type: Tab 0 ratings
1 star 2 stars 3 stars 4 stars 5 stars
comments

Vertigo Tab

   
Riff A - x4
e|--(7)(7)---(7)-(7)-(7) --------------------------------|
B|--(7)(7)---(7)-(7)(7)---------------------------------|
G|---x---x-----x---x---x----------------------------------|
D|---x---x-----x---x---x----------------------------------|
A|---x---x-----x---x---x----------------------------------|
E|---x---x-----x---x---x----------------------------------|

Once, doce, trece, catorce

Riff B - x4
e|---------------------------------------------------------|
B|---------------------------------------------------------|
G|---------------------------------------------------------|
D|-12/14------7-5------------------------------------------|
A|-12/14-(x3)-7-5------------------------------------------|
E|-10/12------5-3------------------------------------------|

Turn it up loud, captain

Riff A (softer and quietly)

Lights go down
It's dark, the jungle is 
Your head can't rule your heart
I'm feeling so much stronger 
Than I thought 
Your eyes are wide
And though your soul 
It can't be bought 
Your mind can wander

Riff C - x 2 
e|---------------------------------------------------------|
B|---------------------------------------------------------|
G|---------------------------------------------------------|
D|-12/14-14-12-5--7-------------------------------------|
A|-12/14-14-12-5--7-------------------------------------|
E|-10/12-12-10--3--5-------------------------------------|

Hello, hello
Hola
I'm at a place called Vertigo 
Donde esta
It's everything I wish I didn't know
Except you give me something I can (Riff B - x2) feel
Feel

Riff A (softer and quietly)

The night is full of holes
These bullets rip the sky
Of ink with gold
They twinkle 
As the boys play rock and roll
They know that they can't dance
At least they know
[ Tab from: http://www.guitartabs.cc/tabs/u/u2/vertigo_tab_ver_4.html ]
e|--12----10----10-----------------------------|
B|-----12----12----12--------------------------|
G|---------------------------------------------|
D|------------------------------------------|
A|------------------------------------------|
E|-------------------------------------------|

I can sell the beats
I'm asking for the check
Girl with crimson nails
Has Jesus 'round the neck
Swinging to the music
Swinging to the music

Riff C - x 2 

Hello, hello
Hola
I'm at a place called Vertigo 
Dond' esta
It's everything I wish I didn't know
But you give me something I can (Riff B - x2) feel
Feel

Riff D - x 3 
e|----------------------------------------|
B|----------------------------------------|
G|-12-11-9--------------------------------|
D|-1211-9--------------------------------|
A|-109--7--------------------------------|
E|--------------------------------------|

Shot dead
Shots fall
Show me, yeah

Riff B - x4 (with back riff)
e|-12-12-12-12-12-12--------------|
B|-10-10-10-9--9--9--7-7-7-5-5-5--|
G|--------------------------------|
D|-----------------------------|
A|-----------------------------|
E|------------------------------|

(then)
e|-------19-------17-----2ndtime----15---------|
B|-15-17----15-17----------------17------------|
G|---------------------------------------------|
D|------------------------------------------|
A|------------------------------------------|
E|-------------------------------------------|

All of this, all of this can be yours
All of this, all of this can be yours
All of this, all of this can be yours
Just give me what I want
And no one gets hurt

Riff C - x 2 
Hello, hello
Hola
We're at a place called Vertigo
Dond' esta
Lights go down and all I know 
Is that you give me something 
Riff C - x 2 (with back riff) 
Maybe, I'm not shure, but it fits
e|-17-16-14----14-16-------------------------|
B|----------17-------15-14-15-14-15-17-17----|
G|-------------------------------------------|
D|----------------------------------------|
A|----------------------------------------|
E|-----------------------------------------|
I can feel your love teaching me how
Your love is teaching me how
(Riff B - x2)
How to kneel
Kneel

(Riff B - x2)
Yeah, yeah, yeah, yeah
Yeah, yeah, yeah, yeah
Yeah, yeah, yeah, yeah
Yeah, yeah, yeah, yeah
Em
Comments