U2 - Ultraviolet Chords & Tabs

 

Ultraviolet Chords & Tabs

U2 Chords & Tabs

Version: 2 Type: Bass Tab 0 ratings
1 star 2 stars 3 stars 4 stars 5 stars
comments

Ultraviolet Bass Tab

   
U2 "Ultraviolet (light my way)" - Bass tab
 ------------------------------------------

 This is the complete tab for this song, the one that was posted before was right but there are
 major variations to how Adam plays it. So here's how it goes

 NOTE: The song is not in fourth notes, I think it's in ninth notes, not sure, but I put it this
       way to save space. Listen to the song for the rythm and the right timing.

 "Oh sugar..."

 G|-------------------------------------------------------|
 D|-------------------------------------------------------|
 A|-7-7-7-7-11-11-11-11-12-12-12-12--12--11-12--11-12-11--|  (repeat)
 E|-------------------------------------------------------|

 "Feel like trash..."
                                                (twice)
 G|-------------------------------------|-------------------------|
 D|-------------------------------------|-------------------------|
 A|-16-16-16-16-14-14-14-14-12-12-12-12-|-4-4-4-4-2-2-2-2-0-0-0-0-|
 E|-------------------------------------|-------------------------|

 "You bury..."
 
 G|------------------------------------------------------|
 D|------------------------------------------------------|  
 A|-7-7-7-7-11-11-11-11-12-12-12-12--12--11-12--11-12-11-|  (repeat)
 E|------------------------------------------------------|

 "I guess..."
                                         (twice)
 G|-----------------------------|-------------------------|
 D|-----------------------------|-------------------------|
 A|-4-4-4-4-2-2-2-2-12-12-12-12-|-4-4-4-4-2-2-2-2-0-0-0-0-|
 E|-----------------------------|-------------------------|

 "Ooooh, ultraviolet..."
[ Tab from: http://www.guitartabs.cc/tabs/u/u2/ultraviolet_btab_ver_2.html ]
               (twice)
 G|-----------------------------------------|--------------------------|---------------------|
 D|-----------------------------------------|--------------------------|---------------------|
 A|-7-7-7-7-14-14-14-14-4-4-4-4-12-12-12-12-|-4-4-4-4-14-14-14-14------|-12--11-12--11-12-11-|
 E|-----------------------------------------|---------------------0----|---------------------|

 "I remember..."

 G|------------------------------------------------------|
 D|------------------------------------------------------|
 A|-7-7-7-7-11-11-11-11-12-12-12-12--12--11-12--11-12-11-|  (repeat)
 E|------------------------------------------------------|

 "Your love was..."
                                                 (twice)
 G|-------------------------------------|-------------------------|
 D|-------------------------------------|-------------------------|
 A|-16-16-16-16-14-14-14-14-12-12-12-12-|-4-4-4-4-2-2-2-2-0-0-0-0-|
 E|-------------------------------------|-------------------------|

 "Ooooh, ultraviolet..."

 G|-----------------------------------------------------------------------------|
 D|-----------------------------------------------------------------------------|
 A|-7-7-7-7-2-2-2-2-4-4-4-4-0-0-0-0-7-7-7-7-14-14-14-14-16-16-16-16-12-12-12-12-|
 E|-----------------------------------------------------------------------------|

 "Baby, baby, baby, ..."

 G|-----------------------------------------------------------------|
 D|-----------------------------------------------------------------| (twice)
 A|-4-4-4-4-0-0-0-0-7-7-7-7-2-2-2-2-4-4-4-4-2-2-2-2-7-7-7-7-2-2-2-2-| 
 E|-----------------------------------------------------------------|

 G|-----------------------------------------------------------------|
 D|-----------------------------------------------------------------|
 A|-4-4-4-4-0-0-0-0-4-4-4-4-2-2-2-2---------4-4-4-4-2-2-2-2---------|
 E|---------------------------------0-0-0-0-----------------0-------|

 That's it, there are some slides Adam ads, they're easy to pick just listen to the song.

 Tabeed by Roberto Cruz
 zurc@sprint.ca

Comments