U2 - Two Hearts Beat As One Chords & Tabs

 

Two Hearts Beat As One Chords & Tabs

U2 Chords & Tabs

Version: 1 Type: Tab 0 ratings
1 star 2 stars 3 stars 4 stars 5 stars
comments

Two Hearts Beat As One Tab

   
"Two hearts beat as one"
Tabbed by John Couillard
Tune down 1/2 a step

INTRO:(some distortion)
E--5-5-|-----------BASS---PART----------------------------------|
B--6-6-|--------------------------------------------------------|
G--7-7-|--------------------------------------------------------|
D--7-7-|----------------------------5-55--55-5------------------|
A--5-5-|---5-5--------5-5----8-5---------------8-8-7-8-7-5------|
E------|--------5-7-8------------8------------------------------|

DURING BASS PART THE CHORD IS STRUMMED A COUPLE OF MORE TIMES.
LISTEN TO THE ALBUM TO GET THE TIMIMG AND EVERYTHING. I AM
GONNA GIVE YA THE CHORDS U FIGURE OUT THE STRUMMING..THERE
IS WAY TOO MUCH STRING MUTING FOR ME TO TAB IT OUT COMPLETELY
STRUM FOR STRUM...HERE YA GO

PART A:
                                                       (PLAY FAST)
E--X-X-X-X-X                     EDGE SLIDES TO       E-X-X-X-X-X-|
B--X-X-X-X-X REPEAT THIS PATTEN  7TH FRET QUICKLY     B-X-X-X-X-X-|
G--5-X-X-X-X UNTIL THIS=========>THEN BACK TO THE     G-7-7-7-7-7-|
D--X-X-X-X-X                     5TH FRET THING.      D-X-X-X-X-X-|
A--X-X-X-X-X                     THEN AFTER 5TH FRET  A-X-X-X-X-X-|
E-----------                     THING DO THIS=======>E-----------|


PART B:
[ Tab from: http://www.guitartabs.cc/tabs/u/u2/two_hearts_beat_as_one_tab.html ]
DO THAT PART A TWICE AND SECOND TIME DONT ADD THE HITTING THE
7TH FRET CHORD THING...GO STRAIGHT TO:
E---------------------------------------------------|X-X-X-X-X-X-X-X-X-X-X-X-X-X-X-X-X-X-X-X-X-X-X-X-X *LISTEN FOR
B---------------------------------------------------|X-X-X-X-X-X-X-X-X-X-X-X-X-X-X-X-X-X-X-X-X-X-X-X-X WHEN TO PRESS
G-X-X-X-X-X-X-X-X-X-X-X-X-X-X-X-7-7-X-7-X-7-X-7-X-7-| AND LET GO OF
D---------------------------------------------------|X-X-X-X-X-X-X-X-X-X-X-X-X-X-X-X-X-X-X-X-X-X-X-X-X THE 7TH FRET
A---------------------------------------------------|X-X-X-X-X-X-X-X-X-X-X-X-X-X-X-X-X-X-X-X-X-X-X-X-X NOTE
E---------------------------------------------------|

CHORUS:"TWO HEARTS BEAT AS ONE"

E-X----X
B-X----X LISTEN FOR HOW MANY TIMES TO HIT EACH CHORD
G-9----7 I THINK ITS LIKE 8X EACH
D-X----X
A-X----X
E-------

THEN BACK TO PART B

THEN CHORUS

THEN:

E---------------------|
B----4----4----4----4-|
G-4----4----4----4----|

THEN PART A....AND AT THE END OF
IT SLIDE UP TO E-X--X--X--X--X--------------------|X- AGAIN LISTEN FOR WHEN
               B-17-X--X--17-X---17 TO HIT THE 17-|TH FRET
               G-X--X--X--X--X--------------------|X- NOTE AND THE STRUMMING
               D-X--X--X--X--X---X----------------|

THEN PART B

THEN CHORUS

THEN:
E------------------X---X---X---| LISTEN FOR STRUMMING OF THE
B----4----4----4-4/15--17--13--| CHORDS SHOWN THERE
G-4----4----4------X---X---X---|
D------------------X---X---X---|
A------------------X---X---X---|
E------------------------------|

AND THATS IT U END THE SONG WITH THOSE CHORDS.

supadad915@yahoo.com
Comments