U2 - The Playboy Mansion Chords & Tabs

 

The Playboy Mansion Chords & Tabs

U2 Chords & Tabs

Version: 1 Type: Bass Tab 0 ratings
1 star 2 stars 3 stars 4 stars 5 stars
comments

The Playboy Mansion Bass Tab

U2 "The Playboy Mansion" -BASS TAB
--------------------

Standard tuning

Intro:
|-----------------------|   This played quite slowly
|-----------------------|   
|-5-5-3-3-3---3-5-5-3-3-|   
|-----------5-----------| 

|------------------------------|
|-------7-------------7h9p7h9--|
|---7/9---97---7---7h9---------|
|-0---------0----0-------------|

Main Bass Riff:
|--------------------------------|
|---------7-------------7h9p7h9--|
|-7---7h9---97---7---7h9---------|
|---0---------0----0-------------|

and at the different bit Like in the first verse when 
bono sings "if beauty.."
|----9---------|
|------9p7h9---|
|------------7-|
|-0------------|

then when bono sings

Pre-chorus:
[ Tab from: http://www.guitartabs.cc/tabs/u/u2/the_playboy_mansion_btab.html ]
"What an i.."
|---------------------------------|
|---------------------------------|
|-5-5-5-5-3-3-3-3-5-5-5-5-3-3-3-3-|
|---------------------------------|

The only variation is in the "dont know if" bit
|---------------------------------|
|---------------------------------|
|-5-5-5-5-3-3-3-3-5-5-5-5-3-3-3-3-|
|---------------------------------|
That is repeated but ends on
|---------------------------------|
|---------------------------------|
|-5-5-5-5-3-3-3-3-5-5-5-5-7-7-7-7-|
|---------------------------------|

all the verses are the same with the main riff
and the If beauty riff being all thats played

Tabbed by Mark Linwood


Hint suggesstions or comments to (Rlinwood@powerup.com.au)

Comments