U2 - The Fly Chords & Tabs

 

The Fly Chords & Tabs

U2 Chords & Tabs

Version: 3 Type: Tab 0 ratings
1 star 2 stars 3 stars 4 stars 5 stars
comments

The Fly Tab

   
-------------------------------------------------------------------------------
			     THE FLY - U2
-------------------------------------------------------------------------------
Tabbed by:Ryan Noormohamed
Email:rnoormohamed@sbcglobal.net

Sup guys Im Ryan Noormohamed and im 15 years old, this is my first tab. It drove me
crazy that I couldnt find a good tab for this solo, so i figured it all out myself.
Its a great song and a great guitar solo so enjoy. Effects-wise, I use medium-heavy
distortion, a phaser, some reverb(arena), and a Dunlop Wah-Wah pedal. Listen to the
song to figure all of this out timing-wise, but anyways heres the solo.

Tuning: Standard Tuning

e|---15-15-14-----------------------15-15-14-----------------------15-15-14--|
B|------------15/17-17~---------------------15/17-17\12----------------------|
G|---------------------------------------------------------------------------|
D|---------------------------------------------------------------------------|
A|---------------------------------------------------------------------------|
E|---------------------------------------------------------------------------|

e|-------------14h15-15-15-15-15-15-14---------------------------------------|
B|--15-15-17-----------------------------15-15-14-14-14-12-12-12-------------|
G|-----------------------------------------------------------------14-14-14--|
D|---------------------------------------------------------------------------|
A|---------------------------------------------------------------------------|
E|---------------------------------------------------------------------------|
[ Tab from: http://www.guitartabs.cc/tabs/u/u2/the_fly_tab_ver_3.html ]
e|---------------------------------------------------------------------------|
B|---------------------------------------------------------------------------|
G|-12-12-12------------------------------------------------------------------|
D|---------16-16-16-14-14-14~~-----18/19-18-16-14~~----18/19-18-16~~-16------|
A|---------------------------------------------------------------------------|
E|---------------------------------------------------------------------------|

e|---------------------------------------------------------------------------|
B|---------------------------------------------------------------------------|
G|-------16-18~~~~(bend gradually 1/2 step, 1 step, 1 1/2 step, then back down)
D|-16/18---------------------------------------------------------------------
}
A|---------------------------------------------------------------------------|
E|---------------------------------------------------------------------------|

e|---------------------------------------------------------------------------|
B|---------------------------------------------------------------------------|
G|----16-16-16---------------------------------------------------------------|
D|--------------19-19-19-18-18-18-16-16-16-14-14-14/16-16h18-16~-14-16-16h18-|
A|---------------------------------------------------------------------------|
E|---------------------------------------------------------------------------|

e|---------------------------------------------------------------------------|
B|---------------------------------------------------------------------------|
G|------------------------------------------------16-16-18-18-19-19-21-21~~--|
D|-16-14-16h18-16-14-16-14-16~16~---18-18-19-19------------------------------|
A|---------------------------------------------------------------------------|
E|---------------------------------------------------------------------------|

I dont have the rest of it while he sings "love, you shine like a burning star
falling from the sky, tonight" down that well yet, but Ill come back and finish
what ive started here later. Enjoy!

| /  slide up
| \  slide down
| h  hammer-on
| p  pull-off
| ~  vibrato
| +  harmonic
| x  Mute note
===============================================================================
Comments