U2 - The Fly Chords & Tabs

 

The Fly Chords & Tabs

U2 Chords & Tabs

Version: 2 Type: Tab 0 ratings
1 star 2 stars 3 stars 4 stars 5 stars
comments

The Fly Tab

   
The fly by U2
Tabbed by Quynh Lam

Play fast               |   Play 4 times              |
------------------------|-----------------------------|
------------------------|-----------------------------|
------------------------|-----------------------------|
---5--------------------|-----------------------------|
-7---7--5----7---7---7--|--7\-0-7-7--0-7--0-7-7--5----|
-----------0---0---0----|---------------------------0-|

RIFF 1
Play 8 times
-----------------------|
-----------------------|
-----------------------|
-----------------------|
---7-7---7----7--7--5--|
-0-----0----0----------|

Verse

--------------------|-----------------------|
--12/14\12---12--12-|-----------------------|  
--12/14\12---12--12-|-----------------------|
--12/14\12---12--12-|-----------------------|
--------------------|---7-7---7----7--7--5--|
--------------------|-0-----0----0----------|

Chorus
[Gospel voice]
C#m      E                 A                 [Lower voice]
Love.......we shine like a burning star      A man will beg a man will 
                       C#m      E   A        on the sheer face of love
We're falling from the sky....... tonight    like a fly on the wall. 
                                             It's no secret at all.

------------------------|
--12-x-x--x-x-x--12\9---|
--12-x-x--x-x-x--12\9---|
--12-x-x--x-x-x--12\9---|
------------------------|
------------------------|

---------------------------|
---------------------------|<<[ Tab from: http://www.guitartabs.cc/tabs/u/u2/the_fly_tab_ver_2.html ]
Chorus
[Gospel voice]
C#m      E                 A                 [Lower voice]
Love.......we shine like a burning star      A man will beg a man will 
                       C#m      E   A        on the sheer face of love
We're falling from the sky....... tonight    like a fly on the wall. 
                                             It's no secret at all.


--------------------------|            -----------------------|  
--------12----------12----|            -----------------------|
--------12----------12----|<<<C#m      E                 A                 [Lower voice]
Love.......we shine like a burning star      A man will beg a man will 
                       C#m      E   A        on the sheer face of love
We're falling from the sky....... tonight    like a fly on the wall. 
                                             It's no secret at all.

outro

Played on 6th (high e) string
-15-15-15-17-0-17-15-15-15-17-0-17-15-15-15-17-17-15-15-15-17-0-17-15-15-15-17-

e 0-17--15-15-15-17-17-16-14-16----------------------
B --------------------------------10--10--8--10--8--5
Comments