U2 - Sunday Bloody Sunday (correct) Chords & Tabs

 

Sunday Bloody Sunday (correct) Chords & Tabs

U2 Chords & Tabs

Version: 1 Type: Tab 4 ratings
1 star 2 stars 3 stars 4 stars 5 stars
comments

Sunday Bloody Sunday (correct) Tab

   
U2 - Sunday Bloody Sunday


Intro/verse:

e|---------------------------------
B|-----6-------6-------4-------4---
G|---6---6---6---6---6---6---6---6-
D|-8-------6-------4-------4-------	4 times
A|---------------------------------
E|---------------------------------


Bridge:

e|---------------------------
B|-6-------7-------6-------7-
G|-6-------8-------6-------8-
D|-6-------8-------6-------8-
A|-4-------6-------4-------6-
E|---------------------------
   C#     D#m      C#     D#m


Chorus/verse:

e|-------------------------------------------
B|-------------------------------------------
G|----------------------11-11--11---11-11--11
D|-8-8--8---11-11--11---11-11--11---11-11--11	3 times
A|-8-8--8---11-11--11---9--9---9----9--9---9-
E|-6-6--6---9--9---9-------------------------


Verse:

e|---------------------------------
B|-----6-------6-------4-------4---
G|---6---6---6---6---6---6---6---6-
D|-8-------6-------4-------4-------	5 times
A|---------------------------------
E|---------------------------------	


e|---------14--13-----
B|---14--14------14---	2 times
G|-13-----------------


e|-------------------------------------------
B|-------------------------------------------
G|----------------------11-11--11---11-11--11
D|-8-8--8---11-11--11---11-11--11---11-11--11	3 times
A|-8-8--8---11-11--11---9--9---9----9--9---9-
E|-6-6--6---9--9---9-------------------------




e|---------------------------------
B|-----6-------6-------4-------4---
G|---6---6---6---6---6---6---6---6-
D|-8-------6-------4-------4-------	5 times
A|---------------------------------
E|---------------------------------


Bridge:
[ Tab from: http://www.guitartabs.cc/tabs/u/u2/sunday_bloody_sunday_correct_tab.html ]
e|---------------------------
B|-6-------7-------6-------7-
G|-6-------8-------6-------8-
D|-6-------8-------6-------8-
A|-4-------6-------4-------6-
E|---------------------------
   C#     D#m      C#     D#m


Chorus:

e|-------------------------------------------
B|-------------------------------------------
G|----------------------11-11--11---11-11--11
D|-8-8--8---11-11--11---11-11--11---11-11--11	4 times
A|-8-8--8---11-11--11---9--9---9----9--9---9-
E|-6-6--6---9--9---9-------------------------


Solo:

e|-11-11-11-9-9-9-11-11-11-9-9-9------------------------------
B|-------------------------------11-11-11-9-9-9-11-11-11-9-9-9
G|------------------------------------------------------------

e|-11-11-11-9-9-9-11-11-11-9-9-9------------------------------
B|-------------------------------11-11-11-9-9-9-11-11-11-9-9-9
G|------------------------------------------------------------

e|----------------------------------------------------------------------
B|-9-9-9-7-7-7-----------------------------------------------6-6-7-7-9-9
G|-------------10-10-8-8-6-6h8-6-6-5-5h6-5---------6h8-6-8-8------------
D|-----------------------------------------8-8-8-8----------------------

e|-6-6-9-9-8---6-6-
B|-----------9-----
G|-----------------
D|-----------------

The next 28 seconds there’s no guitar

e|------14---13------------14-13---
B|-14-----14---14-----14-14-----14-	2 times
G|---13-------------13-------------





e|-------------------------------------------
B|-------------------------------------------
G|----------------------11-11--11---11-11--11
D|-8-8--8---11-11--11---11-11--11---11-11--11	10 times
A|-8-8--8---11-11--11---9--9---9----9--9---9-
E|-6-6--6---9--9---9-------------------------


End:

G|---
D|-8-
A|-8-
E|-6-



This is a great song! Have fun!!!
Comments