U2 - Sunday Bloody Sunday Chords & Tabs

 

Sunday Bloody Sunday Chords & Tabs

U2 Chords & Tabs

Version: 3 Type: Bass Tab

Sunday Bloody Sunday Bass Tab

   
SUNDAY BLOODY SUNDAY
U2

Taken from the Island album War (1983)

Transcribed by: Damian Pamminger (TwitcheD_85@hotmail.com)

Tune down 1/2 step: Eb Ab Db Gb

Fig. 1a
|-----------------------------------------------------------------------------|
| ----------------------------------------------------------------------------|
|-5--5--5--5--5--5--5--5--7--7--7--7--7--7--7--7--5--5--5--5--5--5--5--5------|
| ----------------------------------------------------------------------------|

|----------------|
|----------------|
|-7--------------|
|----------------|

Fig. 1b
|--------------------------------9/--11--9--7----------------------------------------|
|-----------------------------9----------------9-------------------------------------|
|-5--5--5--5--5--5--5--5--7----------------------7--5----------7---------------------|
|------------------------------------------------------------------------------------|
[ Tab from: http://www.guitartabs.cc/tabs/u/u2/sunday_bloody_sunday_btab_ver_3.html ]
Fig. 2a
|--------------------------------------------------------|
|-------------------------5-5-5-0-5----5-5-5-0-5---------|
|-2-2-2-0-2----5-5-5-0-5---------------------------------|
|--------------------------------------------------------|

Fig. 2b
|--------------------------------------------------------|
|-------------------------5-5-5-0-5----5-5-5-0-5--5-5----|
|-2-2-2-0-2----5-5-5-0-5---------------------------------|
|--------------------------------------------------------|

Fig. 3a
|----------------------------------------------------9--------------------|
|--------------------- 7-----------------7--9------9-----9----------------|
|-8----8----7----7----5---------8--10---------7------------5--------------|
|-------------------------------------------------------------------------|

Fig. 3b
|----------------------------------------------------9-----------------------------|
|--------------------- 7-----------------7--9------9-----9-------------------------|
|-8----8----7----7----5---------8--10---------7------------5----5-/-/-/-17-\-------|
|----------------------------------------------------------------------------------|

Fill
|---------|
|---------|
|-12--\---|
|---------|

End
|------------------|
|------------------|
|-2-2--------------|
|------------------|