U2 - Sunday Bloody Sunday Chords & Tabs

 

Sunday Bloody Sunday Chords & Tabs

U2 Chords & Tabs

Version: 2 Type: Bass Tab 0 ratings
1 star 2 stars 3 stars 4 stars 5 stars
comments

Sunday Bloody Sunday Bass Tab

Song: Sunday Bloody Sunday
Band: U2
pathway@pathcom.com

tune down half a step


Intro is guitar


Main Verse

[ Tab from: http://www.guitartabs.cc/tabs/u/u2/sunday_bloody_sunday_btab_ver_2.html ]
G   --------------------------------------------------
D   --------------------------------------------------
A   2-2--5-5-5-5--------------------------------------
E   --------------3-3-3-3-3-3-------------------------

Chorus 

G   --------------------------------------------------
D   --------------------------------------------------
A   3--------------5--------------------------5---------
E   ---------------------------5-----------------------
Comments