U2 - Summer Rain Chords & Tabs

 

Summer Rain Chords & Tabs

U2 Chords & Tabs

Version: 1 Type: Tab 0 ratings
1 star 2 stars 3 stars 4 stars 5 stars
comments

Summer Rain Tab

   
Song Title: Summer Rain
Artist/Band: U2
Album: The Best of 1990-2000 disc 2.

Written by JC Rea(jcrp_21@hotmail.com)

Tuning:Standard

CHORDS:

- EMaj:022100
- Gmaj:320003
- DMaj:x00232
- CMaj:332010
- Em:  022000
- Am:  x02210


INTRO:

- EMaj-GMaj-DMaj


1st VERSE:

         EMaj       GMaj DMaj     EMaj           GMaj  DMaj
"When you stop seeing beauty, you start growing old
  
      CMaj         DMaj       CMaj         DMaj     
 The lines on your face are a map to your soul

          EMaj       GMaj DMaj        EMaj           GMaj DMaj  
 When you stop taking chances, you'll stay where you sit

           CMaj     DMaj             CMaj      DMaj
 You won't live any longer but it'll feel like it"


BRIDGE:

CMaj   GMaj    DMaj        
   "I lost myself in the summer rain

CMaj   GMaj    DMaj
    I lost myself

CMaj   GMaj    DMaj              GMaj  Em  CMaj  Am      
    I lost myself in the summer rain"


CHORUS:

                   GMaj    Em CMaj  Am
    "In the summer rain"

Chorus riff:
e|-7-7-7-7-8-10-10---10-10-10-8---7-7--7-7-7--8-8-7-5--|
B|-8-8-8-8-8--8--8----8--8--8-8---8-8--8-8-8--x-x------|
G|--------------------------------------------5-5------|
D|-----------------------------------------------------|
A|-----------------------------------------------------|
E|-----------------------------------------------------|
[ Tab from: http://www.guitartabs.cc/tabs/u/u2/summer_rain_tab.html ]
e|-7-7-7--8-10-10---10-10-10-8---7--7-7--7-7--8-8-7-5--|
B|-8-8-8--8--8--8----8--8--8-8---8--8-8--8-8--x-x------|
G|--------------------------------------------5-5------|
D|-----------------------------------------------------|
A|-----------------------------------------------------|
E|-----------------------------------------------------|

2nd VERSE:

  EMaj      GMaj DMaj     EMaj      GMaj  DMaj
"Tequila and orange,     Jamaica and rum

    EMaj  GMaj DMaj          EMaj       GMaj  DMaj
 At Moorea                    honey on my tongue

       EMaj GMaj DMaj   EMaj   GMaj  DMaj
 In a small boat on a generous sea, 

CMaj   DMaj    CMaj  DMaj 
 let me be your enemy

EMaj GMaj DMaj     EMaj           GMaj  DMaj
  Tiny hand,       with a grip on the world

CMaj           DMaj       CMaj        DMaj 
 Holding our breath now, diving for pearls


BRIDGE:

CMaj   GMaj    DMaj        
   "I lost myself in the summer rain

CMaj   GMaj    DMaj
    I lost myself

CMaj   GMaj    DMaj              GMaj  Em  CMaj  Am      
    I lost myself in the summer rain"


CHORUS:

GMaj   
"Just as you find me

Em
 Always I will be

   CMaj                Am
 A little bit too free with myself

GMaj   
 Just as you find me

Em
 Always I will be

   CMaj                Am
 A little bit too free with myself"


IT'S THE SAME FOR THE REST OF THE SONG


Comments: jcrp_21@hotmail.com
Comments