U2 - Stuck In A Moment Chords & Tabs

 

Stuck In A Moment Chords & Tabs

U2 Chords & Tabs

Version: 2 Type: Bass Tab 0 ratings
1 star 2 stars 3 stars 4 stars 5 stars
comments

Stuck In A Moment Bass Tab

Stuck in a Moment you Cant get out of by U2
Standard Tuning

(Intro)
G:----------|----------|----------|----------|
D:----------|----------|----------|--7-------| 
A:----------|--0-------|--2----4--|-------7--|
E:--0----4--|-------4--|----------|----------|

Verse 1-Intro played 2x

G:----------|----------|----------|----------|
D:----------|--7----7--|--4----4--|--7----7--|
A:--4----4--|----------|----------|----------|
E:----------|----------|----------|----------|

G:----------|----------|----------|----------|
D:----------|--7----7--|----------|----------|
A:--4----4--|----------|--4----4--|--2----2--|
E:----------|----------|----------|----------|

(Chorus)
G:----------|----------|----------|----------|
D:-------6--|--7----6--|--9---11--|--7-------|  x2
A:--7-------|----------|----------|-------7--|
E:----------|----------|----------|----------|

G:----------|----------|----------|----------|
D:----------|----------|----------|----------|
A:7---------|----------|----------|----------|
E:----------|----------|----------|----------|


G:----------|----------|----------|----------|
D:----------|----------|----------|--7-------|  x2
A:----------|--0-------|--2----4--|-------7--|
E:--0----4--|-------4--|----------|----------|
[ Tab from: http://www.guitartabs.cc/tabs/u/u2/stuck_in_a_moment_btab_ver_2.html ]
G:----------|----------|----------|----------|
D:----------|--7----7--|--4----4--|--7----7--|
A:--4----4--|----------|----------|----------|
E:----------|----------|----------|----------|

G:----------|----------|----------|----------|
D:----------|--7----7--|----------|----------|
A:--4----4--|----------|--4----4--|--2----2--|
E:----------|----------|----------|----------|

G:----------|----------|----------|----------|
D:-------6--|--7----6--|--9---11--|--7-------|  x2
A:--7-------|----------|----------|-------7--|
E:----------|----------|----------|----------|

I was... 

G:----------|----------|----------|----------|
D:----------|--7----7--|----------|----------|
A:--9----9--|----------|--7----7--|--7----7--|
E:----------|----------|----------|----------|

G:----------|----------|----------|----------|
D:----------|--7----7--|----------|----------|
A:--9----9--|----------|--5----5--|----------|
E:----------|----------|----------|--7----7--|

G:----------|----------|----------|----------|
D:-------6--|--7----6--|--9---11--|--7-------|  x8
A:--7-------|----------|----------|-------7--|
E:----------|----------|----------|----------|

G:----------|----------|----------|----------|
D:--7----7--|--7----7--|--7----7--|--7-------|
A:----------|----------|----------|-------7--|
E:----------|----------|----------|----------|

Thanks, please rate it after you learn it.
Tabbed by:
_TheBassist01_
Comments